  0
SECTION
  2
HEADER
  9
$ACADVER
  1
AC1015
  9
$ACADMAINTVER
 70
     6
  9
$DWGCODEPAGE
  3
ANSI_1254
  9
$INSBASE
 10
0.0
 20
0.0
 30
0.0
  9
$EXTMIN
 10
0.0
 20
0.0
 30
0.0
  9
$EXTMAX
 10
279.4
 20
215.9
 30
0.0
  9
$LIMMIN
 10
0.0
 20
0.0
  9
$LIMMAX
 10
279.4
 20
215.9
  9
$ORTHOMODE
 70
     0
  9
$REGENMODE
 70
     1
  9
$FILLMODE
 70
     1
  9
$QTEXTMODE
 70
     0
  9
$MIRRTEXT
 70
     1
  9
$LTSCALE
 40
1.0
  9
$ATTMODE
 70
     1
  9
$TEXTSIZE
 40
3.5
  9
$TRACEWID
 40
1.0
  9
$TEXTSTYLE
  7
Standard
  9
$CLAYER
  8
0
  9
$CELTYPE
  6
ByLayer
  9
$CECOLOR
 62
   256
  9
$CELTSCALE
 40
1.0
  9
$DISPSILH
 70
     0
  9
$DIMSCALE
 40
1.0
  9
$DIMASZ
 40
3.5
  9
$DIMEXO
 40
1.0
  9
$DIMDLI
 40
3.75
  9
$DIMRND
 40
0.0
  9
$DIMDLE
 40
0.0
  9
$DIMEXE
 40
1.0
  9
$DIMTP
 40
0.0
  9
$DIMTM
 40
0.0
  9
$DIMTXT
 40
3.5
  9
$DIMCEN
 40
2.5
  9
$DIMTSZ
 40
0.0
  9
$DIMTOL
 70
     0
  9
$DIMLIM
 70
     0
  9
$DIMTIH
 70
     1
  9
$DIMTOH
 70
     1
  9
$DIMSE1
 70
     0
  9
$DIMSE2
 70
     0
  9
$DIMTAD
 70
     1
  9
$DIMZIN
 70
     0
  9
$DIMBLK
  1

  9
$DIMASO
 70
     1
  9
$DIMSHO
 70
     1
  9
$DIMPOST
  1

  9
$DIMAPOST
  1

  9
$DIMALT
 70
     0
  9
$DIMALTD
 70
     3
  9
$DIMALTF
 40
0.0393700787
  9
$DIMLFAC
 40
1.0
  9
$DIMTOFL
 70
     1
  9
$DIMTVP
 40
0.0
  9
$DIMTIX
 70
     0
  9
$DIMSOXD
 70
     0
  9
$DIMSAH
 70
     0
  9
$DIMBLK1
  1

  9
$DIMBLK2
  1

  9
$DIMSTYLE
  2
ISO-25
  9
$DIMCLRD
 70
     0
  9
$DIMCLRE
 70
     0
  9
$DIMCLRT
 70
     0
  9
$DIMTFAC
 40
1.0
  9
$DIMGAP
 40
1.524
  9
$DIMJUST
 70
     0
  9
$DIMSD1
 70
     0
  9
$DIMSD2
 70
     0
  9
$DIMTOLJ
 70
     0
  9
$DIMTZIN
 70
     0
  9
$DIMALTZ
 70
     0
  9
$DIMALTTZ
 70
     0
  9
$DIMUPT
 70
     0
  9
$DIMDEC
 70
     2
  9
$DIMTDEC
 70
     2
  9
$DIMALTU
 70
     2
  9
$DIMALTTD
 70
     3
  9
$DIMTXSTY
  7
Standard
  9
$DIMAUNIT
 70
     0
  9
$DIMADEC
 70
     2
  9
$DIMALTRND
 40
0.0
  9
$DIMAZIN
 70
     0
  9
$DIMDSEP
 70
    44
  9
$DIMATFIT
 70
     3
  9
$DIMFRAC
 70
     0
  9
$DIMLDRBLK
  1

  9
$DIMLUNIT
 70
     2
  9
$DIMLWD
 70
    -2
  9
$DIMLWE
 70
    -2
  9
$DIMTMOVE
 70
     0
  9
$LUNITS
 70
     2
  9
$LUPREC
 70
     2
  9
$SKETCHINC
 40
1.0
  9
$FILLETRAD
 40
10.0
  9
$AUNITS
 70
     0
  9
$AUPREC
 70
     2
  9
$MENU
  1
.
  9
$ELEVATION
 40
0.0
  9
$PELEVATION
 40
0.0
  9
$THICKNESS
 40
0.0
  9
$LIMCHECK
 70
     0
  9
$CHAMFERA
 40
0.0
  9
$CHAMFERB
 40
0.0
  9
$CHAMFERC
 40
0.0
  9
$CHAMFERD
 40
0.0
  9
$SKPOLY
 70
     0
  9
$TDCREATE
 40
2459741.614499352
  9
$TDUCREATE
 40
2459741.489499352
  9
$TDUPDATE
 40
2459741.614499526
  9
$TDUUPDATE
 40
2459741.489499526
  9
$TDINDWG
 40
0.0000000116
  9
$TDUSRTIMER
 40
0.0000000116
  9
$USRTIMER
 70
     1
  9
$ANGBASE
 50
0.0
  9
$ANGDIR
 70
     0
  9
$PDMODE
 70
     0
  9
$PDSIZE
 40
-1.0
  9
$PLINEWID
 40
0.0
  9
$SPLFRAME
 70
     0
  9
$SPLINETYPE
 70
     6
  9
$SPLINESEGS
 70
     8
  9
$HANDSEED
  5
142
  9
$SURFTAB1
 70
     6
  9
$SURFTAB2
 70
     6
  9
$SURFTYPE
 70
     6
  9
$SURFU
 70
     6
  9
$SURFV
 70
     6
  9
$UCSBASE
  2

  9
$UCSNAME
  2

  9
$UCSORG
 10
0.0
 20
0.0
 30
0.0
  9
$UCSXDIR
 10
1.0
 20
0.0
 30
0.0
  9
$UCSYDIR
 10
0.0
 20
1.0
 30
0.0
  9
$UCSORTHOREF
  2

  9
$UCSORTHOVIEW
 70
     0
  9
$UCSORGTOP
 10
0.0
 20
0.0
 30
0.0
  9
$UCSORGBOTTOM
 10
0.0
 20
0.0
 30
0.0
  9
$UCSORGLEFT
 10
0.0
 20
0.0
 30
0.0
  9
$UCSORGRIGHT
 10
0.0
 20
0.0
 30
0.0
  9
$UCSORGFRONT
 10
0.0
 20
0.0
 30
0.0
  9
$UCSORGBACK
 10
0.0
 20
0.0
 30
0.0
  9
$PUCSBASE
  2

  9
$PUCSNAME
  2

  9
$PUCSORG
 10
0.0
 20
0.0
 30
0.0
  9
$PUCSXDIR
 10
1.0
 20
0.0
 30
0.0
  9
$PUCSYDIR
 10
0.0
 20
1.0
 30
0.0
  9
$PUCSORTHOREF
  2

  9
$PUCSORTHOVIEW
 70
     0
  9
$PUCSORGTOP
 10
0.0
 20
0.0
 30
0.0
  9
$PUCSORGBOTTOM
 10
0.0
 20
0.0
 30
0.0
  9
$PUCSORGLEFT
 10
0.0
 20
0.0
 30
0.0
  9
$PUCSORGRIGHT
 10
0.0
 20
0.0
 30
0.0
  9
$PUCSORGFRONT
 10
0.0
 20
0.0
 30
0.0
  9
$PUCSORGBACK
 10
0.0
 20
0.0
 30
0.0
  9
$USERI1
 70
     0
  9
$USERI2
 70
     0
  9
$USERI3
 70
     0
  9
$USERI4
 70
     0
  9
$USERI5
 70
     0
  9
$USERR1
 40
0.0
  9
$USERR2
 40
0.0
  9
$USERR3
 40
0.0
  9
$USERR4
 40
0.0
  9
$USERR5
 40
0.0
  9
$WORLDVIEW
 70
     1
  9
$SHADEDGE
 70
     3
  9
$SHADEDIF
 70
    70
  9
$TILEMODE
 70
     1
  9
$MAXACTVP
 70
    64
  9
$PINSBASE
 10
0.0
 20
0.0
 30
0.0
  9
$PLIMCHECK
 70
     0
  9
$PEXTMIN
 10
1.0000000000E+20
 20
1.0000000000E+20
 30
1.0000000000E+20
  9
$PEXTMAX
 10
-1.0000000000E+20
 20
-1.0000000000E+20
 30
-1.0000000000E+20
  9
$PLIMMIN
 10
0.0
 20
0.0
  9
$PLIMMAX
 10
420.0
 20
297.0
  9
$UNITMODE
 70
     0
  9
$VISRETAIN
 70
     1
  9
$PLINEGEN
 70
     0
  9
$PSLTSCALE
 70
     1
  9
$TREEDEPTH
 70
  3020
  9
$CMLSTYLE
  2
Standard
  9
$CMLJUST
 70
     0
  9
$CMLSCALE
 40
20.0
  9
$PROXYGRAPHICS
 70
     1
  9
$MEASUREMENT
 70
     1
  9
$CELWEIGHT
370
    -1
  9
$ENDCAPS
280
     0
  9
$JOINSTYLE
280
     0
  9
$LWDISPLAY
290
     1
  9
$INSUNITS
 70
     4
  9
$HYPERLINKBASE
  1

  9
$STYLESHEET
  1

  9
$XEDIT
290
     1
  9
$CEPSNTYPE
380
     0
  9
$PSTYLEMODE
290
     1
  9
$FINGERPRINTGUID
  2
{345bc8e5-f162-482f-8c2e-5c751fa5579b}
  9
$VERSIONGUID
  2
{FAEB1C32-E019-11D5-929B-00C0DF256EC4}
  9
$EXTNAMES
290
     1
  9
$PSVPSCALE
 40
0.0
  9
$OLESTARTUP
290
     0
  0
ENDSEC
  0
SECTION
  2
CLASSES
  0
CLASS
  1
ACDBDICTIONARYWDFLT
  2
AcDbDictionaryWithDefault
  3
ObjectDBX Classes
 90
        0
280
     0
281
     0
  0
CLASS
  1
VISUALSTYLE
  2
AcDbVisualStyle
  3
ObjectDBX Classes
 90
     4095
280
     0
281
     0
  0
CLASS
  1
MATERIAL
  2
AcDbMaterial
  3
ObjectDBX Classes
 90
     1153
280
     0
281
     0
  0
CLASS
  1
SCALE
  2
AcDbScale
  3
ObjectDBX Classes
 90
     1153
280
     0
281
     0
  0
CLASS
  1
TABLESTYLE
  2
AcDbTableStyle
  3
ObjectDBX Classes
 90
     4095
280
     0
281
     0
  0
CLASS
  1
MLEADERSTYLE
  2
AcDbMLeaderStyle
  3
ACDB_MLEADERSTYLE_CLASS
 90
     4095
280
     0
281
     0
  0
CLASS
  1
SUN
  2
AcDbSun
  3
SCENEOE
 90
     1153
280
     0
281
     0
  0
CLASS
  1
ACDBPLACEHOLDER
  2
AcDbPlaceHolder
  3
ObjectDBX Classes
 90
        0
280
     0
281
     0
  0
CLASS
  1
LAYOUT
  2
AcDbLayout
  3
ObjectDBX Classes
 90
        0
280
     0
281
     0
  0
ENDSEC
  0
SECTION
  2
TABLES
  0
TABLE
  2
VPORT
  5
8
330
0
100
AcDbSymbolTable
 70
     1
  0
VPORT
  5
29
330
8
100
AcDbSymbolTableRecord
100
AcDbViewportTableRecord
  2
*Active
 70
     0
 10
0.0
 20
0.0
 11
1.0
 21
1.0
 12
139.7
 22
107.95
 13
0.0
 23
0.0
 14
10.0
 24
10.0
 15
10.0
 25
10.0
 16
0.0
 26
0.0
 36
1.0
 17
0.0
 27
0.0
 37
0.0
 40
215.9
 41
1.2941176471
 42
50.0
 43
0.0
 44
0.0
 50
0.0
 51
0.0
 71
     0
 72
  2000
 73
     1
 74
     3
 75
     0
 76
     0
 77
     0
 78
     0
281
     0
 65
     1
110
0.0
120
0.0
130
0.0
111
1.0
121
0.0
131
0.0
112
0.0
122
1.0
132
0.0
 79
     0
146
0.0
  0
ENDTAB
  0
TABLE
  2
LTYPE
  5
5
330
0
100
AcDbSymbolTable
 70
     6
  0
LTYPE
  5
14
330
5
100
AcDbSymbolTableRecord
100
AcDbLinetypeTableRecord
  2
ByBlock
 70
     0
  3

 72
    65
 73
     0
 40
0.0
  0
LTYPE
  5
15
330
5
100
AcDbSymbolTableRecord
100
AcDbLinetypeTableRecord
  2
ByLayer
 70
     0
  3

 72
    65
 73
     0
 40
0.0
  0
LTYPE
  5
16
330
5
100
AcDbSymbolTableRecord
100
AcDbLinetypeTableRecord
  2
Continuous
 70
     0
  3
Solid line
 72
    65
 73
     0
 40
0.0
  0
LTYPE
  5
6E
330
5
100
AcDbSymbolTableRecord
100
AcDbLinetypeTableRecord
  2
HIDDEN
 70
     0
  3
Hidden __ __ __ __ __ __ __ __ __ __ __ __ __ __
 72
    65
 73
     2
 40
1.905
 49
1.27
 74
     0
 49
-0.635
 74
     0
  0
LTYPE
  5
6F
330
5
100
AcDbSymbolTableRecord
100
AcDbLinetypeTableRecord
  2
PHANTOM
 70
     0
  3
Phantom ______  __  __  ______  __  __  ______
 72
    65
 73
     6
 40
12.7
 49
6.35
 74
     0
 49
-1.27
 74
     0
 49
1.27
 74
     0
 49
-1.27
 74
     0
 49
1.27
 74
     0
 49
-1.27
 74
     0
  0
LTYPE
  5
70
330
5
100
AcDbSymbolTableRecord
100
AcDbLinetypeTableRecord
  2
CENTER
 70
     0
  3
Center ____ _ ____ _ ____ _ ____ _ ____ _ ____
 72
    65
 73
     4
 40
10.16
 49
6.35
 74
     0
 49
-1.27
 74
     0
 49
1.27
 74
     0
 49
-1.27
 74
     0
  0
LTYPE
  5
71
330
5
100
AcDbSymbolTableRecord
100
AcDbLinetypeTableRecord
  2
CENTERX2
 70
     0
  3
Center (2x) ________  __  ________  __  _____
 72
    65
 73
     4
 40
20.32
 49
12.7
 74
     0
 49
-2.54
 74
     0
 49
2.54
 74
     0
 49
-2.54
 74
     0
  0
LTYPE
  5
72
330
5
100
AcDbSymbolTableRecord
100
AcDbLinetypeTableRecord
  2
DOT2
 70
     0
  3
Dot (.5x) ........................................
 72
    65
 73
     2
 40
0.635
 49
0.0
 74
     0
 49
-0.635
 74
     0
  0
ENDTAB
  0
TABLE
  2
LAYER
  5
2
330
0
100
AcDbSymbolTable
 70
    17
  0
LAYER
  5
10
330
2
100
AcDbSymbolTableRecord
100
AcDbLayerTableRecord
  2
0
 70
     0
 62
     7
  6
Continuous
370
    -3
390
F
  0
LAYER
  5
73
330
2
100
AcDbSymbolTableRecord
100
AcDbLayerTableRecord
  2
FORMAT
 70
     0
 62
     7
  6
Continuous
370
    -3
390
F
  0
LAYER
  5
74
330
2
100
AcDbSymbolTableRecord
100
AcDbLayerTableRecord
  2
YARDIMCI_GEOMETRI
 70
     0
 62
    -6
  6
Continuous
290
     0
370
    -3
390
F
  0
LAYER
  5
75
330
2
100
AcDbSymbolTableRecord
100
AcDbLayerTableRecord
  2
SAYFA_CERCEVESI
 70
     0
 62
     7
  6
Continuous
370
    25
390
F
  0
LAYER
  5
76
330
2
100
AcDbSymbolTableRecord
100
AcDbLayerTableRecord
  2
ANTET
 70
     0
 62
     7
  6
Continuous
370
    -3
390
F
  0
LAYER
  5
77
330
2
100
AcDbSymbolTableRecord
100
AcDbLayerTableRecord
  2
OLCU
 70
     0
 62
   150
  6
Continuous
370
    -3
390
F
  0
LAYER
  5
78
330
2
100
AcDbSymbolTableRecord
100
AcDbLayerTableRecord
  2
METIN
 70
     0
 62
    96
  6
Continuous
370
    -3
390
F
  0
LAYER
  5
79
330
2
100
AcDbSymbolTableRecord
100
AcDbLayerTableRecord
  2
BALON
 70
     0
 62
     5
  6
Continuous
370
    -3
390
F
  0
LAYER
  5
7A
330
2
100
AcDbSymbolTableRecord
100
AcDbLayerTableRecord
  2
VURGU
 70
     0
 62
     7
  6
Continuous
370
    -3
390
F
  0
LAYER
  5
7B
330
2
100
AcDbSymbolTableRecord
100
AcDbLayerTableRecord
  2
SILIK
 70
     0
 62
     7
  6
Continuous
370
    -3
390
F
  0
LAYER
  5
7C
330
2
100
AcDbSymbolTableRecord
100
AcDbLayerTableRecord
  2
MODEL
 70
     0
 62
     7
  6
Continuous
370
    -3
390
F
  0
LAYER
  5
7D
330
2
100
AcDbSymbolTableRecord
100
AcDbLayerTableRecord
  2
DETAYLANDıRMA
 70
     0
 62
   190
  6
Continuous
370
    -3
390
F
  0
LAYER
  5
7E
330
2
100
AcDbSymbolTableRecord
100
AcDbLayerTableRecord
  2
TOLERANS
 70
     0
 62
   230
  6
Continuous
370
    -3
390
F
  0
LAYER
  5
7F
330
2
100
AcDbSymbolTableRecord
100
AcDbLayerTableRecord
  2
MERKEZ_CIZGILERI
 70
     0
 62
    30
  6
Continuous
370
    -3
390
F
  0
LAYER
  5
80
330
2
100
AcDbSymbolTableRecord
100
AcDbLayerTableRecord
  2
KESIT-DETAY_CIZGILERI
 70
     0
 62
     7
  6
Continuous
370
    -3
390
F
  0
LAYER
  5
81
330
2
100
AcDbSymbolTableRecord
100
AcDbLayerTableRecord
  2
\U+041E\U+0421\U+0415\U+0412\U+042B\U+0415
 70
     0
 62
     7
  6
Continuous
370
    -3
390
F
  0
LAYER
  5
82
330
2
100
AcDbSymbolTableRecord
100
AcDbLayerTableRecord
  2
\U+0412\U+041E\U+0414\U+042F\U+041D\U+042B\U+0415_\U+0417\U+041D\U+0410\U+041A\U+0418
 70
     0
 62
    11
  6
Continuous
370
    -3
390
F
  0
ENDTAB
  0
TABLE
  2
STYLE
  5
3
330
0
100
AcDbSymbolTable
 70
     1
  0
STYLE
  5
11
330
3
100
AcDbSymbolTableRecord
100
AcDbTextStyleTableRecord
  2
Standard
 70
     0
 40
0.0
 41
1.0
 50
0.0
 71
     0
 42
3.5
  3
txt
  4

  0
ENDTAB
  0
TABLE
  2
VIEW
  5
6
330
0
100
AcDbSymbolTable
 70
     0
  0
ENDTAB
  0
TABLE
  2
UCS
  5
7
330
0
100
AcDbSymbolTable
 70
     0
  0
ENDTAB
  0
TABLE
  2
APPID
  5
9
330
0
100
AcDbSymbolTable
 70
     1
  0
APPID
  5
12
330
9
100
AcDbSymbolTableRecord
100
AcDbRegAppTableRecord
  2
ACAD
 70
     0
  0
ENDTAB
  0
TABLE
  2
DIMSTYLE
  5
A
330
0
100
AcDbSymbolTable
 70
     1
100
AcDbDimStyleTable
  0
DIMSTYLE
105
27
330
A
100
AcDbSymbolTableRecord
100
AcDbDimStyleTableRecord
  2
ISO-25
 70
     0
 41
2.5
 42
0.625
 43
3.75
 44
1.25
 73
     0
 74
     0
 77
     1
 78
     8
140
2.5
141
2.5
143
0.0393700787
147
0.625
171
     3
172
     1
178
     0
271
     2
272
     2
274
     3
278
    44
283
     0
284
     8
340
11
  0
ENDTAB
  0
TABLE
  2
BLOCK_RECORD
  5
1
330
0
100
AcDbSymbolTable
 70
     5
  0
BLOCK_RECORD
  5
1F
330
1
100
AcDbSymbolTableRecord
100
AcDbBlockTableRecord
  2
*Model_Space
340
22
  0
BLOCK_RECORD
  5
1B
330
1
100
AcDbSymbolTableRecord
100
AcDbBlockTableRecord
  2
*Paper_Space
340
1E
  0
BLOCK_RECORD
  5
23
330
1
100
AcDbSymbolTableRecord
100
AcDbBlockTableRecord
  2
*Paper_Space0
340
26
  0
BLOCK_RECORD
  5
C5
330
1
100
AcDbSymbolTableRecord
100
AcDbBlockTableRecord
  2
SW_CENTERMARKSYMBOL_0
340
0
102
{BLKREFS
331
D0
102
}
  0
BLOCK_RECORD
  5
F1
330
1
100
AcDbSymbolTableRecord
100
AcDbBlockTableRecord
  2
SW_CENTERMARKSYMBOL_1
340
0
102
{BLKREFS
331
FC
102
}
  0
BLOCK_RECORD
  5
FD
330
1
100
AcDbSymbolTableRecord
100
AcDbBlockTableRecord
  2
SW_CENTERMARKSYMBOL_2
340
0
102
{BLKREFS
331
108
102
}
  0
BLOCK_RECORD
  5
109
330
1
100
AcDbSymbolTableRecord
100
AcDbBlockTableRecord
  2
SW_CENTERMARKSYMBOL_3
340
0
102
{BLKREFS
331
114
102
}
  0
ENDTAB
  0
ENDSEC
  0
SECTION
  2
BLOCKS
  0
BLOCK
  5
20
330
1F
100
AcDbEntity
  8
0
100
AcDbBlockBegin
  2
*Model_Space
 70
     0
 10
0.0
 20
0.0
 30
0.0
  3
*Model_Space
  1

  0
ENDBLK
  5
21
330
1F
100
AcDbEntity
  8
0
100
AcDbBlockEnd
  0
BLOCK
  5
1C
330
1B
100
AcDbEntity
 67
     1
  8
0
100
AcDbBlockBegin
  2
*Paper_Space
 70
     0
 10
0.0
 20
0.0
 30
0.0
  3
*Paper_Space
  1

  0
ENDBLK
  5
1D
330
1B
100
AcDbEntity
 67
     1
  8
0
100
AcDbBlockEnd
  0
BLOCK
  5
24
330
23
100
AcDbEntity
  8
0
100
AcDbBlockBegin
  2
*Paper_Space0
 70
     0
 10
0.0
 20
0.0
 30
0.0
  3
*Paper_Space0
  1

  0
ENDBLK
  5
25
330
23
100
AcDbEntity
  8
0
100
AcDbBlockEnd
  0
BLOCK
  5
C6
330
C5
100
AcDbEntity
  8
0
100
AcDbBlockBegin
  2
SW_CENTERMARKSYMBOL_0
 70
     0
 10
0.0
 20
0.0
 30
0.0
  3
SW_CENTERMARKSYMBOL_0
  1

  0
LINE
  5
C8
330
C5
100
AcDbEntity
  8
FORMAT
 62
     0
100
AcDbLine
 10
0.0
 20
0.0
 30
0.0
 11
0.0
 21
2.5
 31
0.0
  0
LINE
  5
C9
330
C5
100
AcDbEntity
  8
FORMAT
 62
     0
100
AcDbLine
 10
0.0
 20
0.0
 30
0.0
 11
-2.5
 21
0.0
 31
0.0
  0
LINE
  5
CA
330
C5
100
AcDbEntity
  8
FORMAT
 62
     0
100
AcDbLine
 10
0.0
 20
0.0
 30
0.0
 11
0.0
 21
-2.5
 31
0.0
  0
LINE
  5
CB
330
C5
100
AcDbEntity
  8
FORMAT
 62
     0
100
AcDbLine
 10
0.0
 20
0.0
 30
0.0
 11
2.5
 21
0.0
 31
0.0
  0
LINE
  5
CC
330
C5
100
AcDbEntity
  8
FORMAT
 62
     0
100
AcDbLine
 10
0.0
 20
5.0
 30
0.0
 11
0.0
 21
28.2
 31
0.0
  0
LINE
  5
CD
330
C5
100
AcDbEntity
  8
FORMAT
 62
     0
100
AcDbLine
 10
-5.0
 20
0.0
 30
0.0
 11
-28.2
 21
0.0
 31
0.0
  0
LINE
  5
CE
330
C5
100
AcDbEntity
  8
FORMAT
 62
     0
100
AcDbLine
 10
0.0
 20
-5.0
 30
0.0
 11
0.0
 21
-28.2
 31
0.0
  0
LINE
  5
CF
330
C5
100
AcDbEntity
  8
FORMAT
 62
     0
100
AcDbLine
 10
5.0
 20
0.0
 30
0.0
 11
28.2
 21
0.0
 31
0.0
  0
ENDBLK
  5
C7
330
C5
100
AcDbEntity
  8
0
100
AcDbBlockEnd
  0
BLOCK
  5
F2
330
F1
100
AcDbEntity
  8
0
100
AcDbBlockBegin
  2
SW_CENTERMARKSYMBOL_1
 70
     0
 10
0.0
 20
0.0
 30
0.0
  3
SW_CENTERMARKSYMBOL_1
  1

  0
LINE
  5
F4
330
F1
100
AcDbEntity
  8
FORMAT
 62
     0
100
AcDbLine
 10
0.0
 20
0.0
 30
0.0
 11
0.0
 21
2.5
 31
0.0
  0
LINE
  5
F5
330
F1
100
AcDbEntity
  8
FORMAT
 62
     0
100
AcDbLine
 10
0.0
 20
0.0
 30
0.0
 11
-2.5
 21
0.0
 31
0.0
  0
LINE
  5
F6
330
F1
100
AcDbEntity
  8
FORMAT
 62
     0
100
AcDbLine
 10
0.0
 20
0.0
 30
0.0
 11
0.0
 21
-2.5
 31
0.0
  0
LINE
  5
F7
330
F1
100
AcDbEntity
  8
FORMAT
 62
     0
100
AcDbLine
 10
0.0
 20
0.0
 30
0.0
 11
2.5
 21
0.0
 31
0.0
  0
LINE
  5
F8
330
F1
100
AcDbEntity
  8
FORMAT
 62
     0
100
AcDbLine
 10
0.0
 20
5.0
 30
0.0
 11
0.0
 21
34.0
 31
0.0
  0
LINE
  5
F9
330
F1
100
AcDbEntity
  8
FORMAT
 62
     0
100
AcDbLine
 10
-5.0
 20
0.0
 30
0.0
 11
-34.0
 21
0.0
 31
0.0
  0
LINE
  5
FA
330
F1
100
AcDbEntity
  8
FORMAT
 62
     0
100
AcDbLine
 10
0.0
 20
-5.0
 30
0.0
 11
0.0
 21
-34.0
 31
0.0
  0
LINE
  5
FB
330
F1
100
AcDbEntity
  8
FORMAT
 62
     0
100
AcDbLine
 10
5.0
 20
0.0
 30
0.0
 11
34.0
 21
0.0
 31
0.0
  0
ENDBLK
  5
F3
330
F1
100
AcDbEntity
  8
0
100
AcDbBlockEnd
  0
BLOCK
  5
FE
330
FD
100
AcDbEntity
  8
0
100
AcDbBlockBegin
  2
SW_CENTERMARKSYMBOL_2
 70
     0
 10
0.0
 20
0.0
 30
0.0
  3
SW_CENTERMARKSYMBOL_2
  1

  0
LINE
  5
100
330
FD
100
AcDbEntity
  8
FORMAT
 62
     0
100
AcDbLine
 10
0.0
 20
0.0
 30
0.0
 11
0.0
 21
2.5
 31
0.0
  0
LINE
  5
101
330
FD
100
AcDbEntity
  8
FORMAT
 62
     0
100
AcDbLine
 10
0.0
 20
0.0
 30
0.0
 11
-2.5
 21
0.0
 31
0.0
  0
LINE
  5
102
330
FD
100
AcDbEntity
  8
FORMAT
 62
     0
100
AcDbLine
 10
0.0
 20
0.0
 30
0.0
 11
0.0
 21
-2.5
 31
0.0
  0
LINE
  5
103
330
FD
100
AcDbEntity
  8
FORMAT
 62
     0
100
AcDbLine
 10
0.0
 20
0.0
 30
0.0
 11
2.5
 21
0.0
 31
0.0
  0
LINE
  5
104
330
FD
100
AcDbEntity
  8
FORMAT
 62
     0
100
AcDbLine
 10
0.0
 20
5.0
 30
0.0
 11
0.0
 21
9.5
 31
0.0
  0
LINE
  5
105
330
FD
100
AcDbEntity
  8
FORMAT
 62
     0
100
AcDbLine
 10
-5.0
 20
0.0
 30
0.0
 11
-9.5
 21
0.0
 31
0.0
  0
LINE
  5
106
330
FD
100
AcDbEntity
  8
FORMAT
 62
     0
100
AcDbLine
 10
0.0
 20
-5.0
 30
0.0
 11
0.0
 21
-9.5
 31
0.0
  0
LINE
  5
107
330
FD
100
AcDbEntity
  8
FORMAT
 62
     0
100
AcDbLine
 10
5.0
 20
0.0
 30
0.0
 11
9.5
 21
0.0
 31
0.0
  0
ENDBLK
  5
FF
330
FD
100
AcDbEntity
  8
0
100
AcDbBlockEnd
  0
BLOCK
  5
10A
330
109
100
AcDbEntity
  8
0
100
AcDbBlockBegin
  2
SW_CENTERMARKSYMBOL_3
 70
     0
 10
0.0
 20
0.0
 30
0.0
  3
SW_CENTERMARKSYMBOL_3
  1

  0
LINE
  5
10C
330
109
100
AcDbEntity
  8
FORMAT
 62
     0
100
AcDbLine
 10
0.0
 20
0.0
 30
0.0
 11
0.0
 21
2.5
 31
0.0
  0
LINE
  5
10D
330
109
100
AcDbEntity
  8
FORMAT
 62
     0
100
AcDbLine
 10
0.0
 20
0.0
 30
0.0
 11
-2.5
 21
0.0
 31
0.0
  0
LINE
  5
10E
330
109
100
AcDbEntity
  8
FORMAT
 62
     0
100
AcDbLine
 10
0.0
 20
0.0
 30
0.0
 11
0.0
 21
-2.5
 31
0.0
  0
LINE
  5
10F
330
109
100
AcDbEntity
  8
FORMAT
 62
     0
100
AcDbLine
 10
0.0
 20
0.0
 30
0.0
 11
2.5
 21
0.0
 31
0.0
  0
LINE
  5
110
330
109
100
AcDbEntity
  8
FORMAT
 62
     0
100
AcDbLine
 10
0.0
 20
5.0
 30
0.0
 11
0.0
 21
9.5
 31
0.0
  0
LINE
  5
111
330
109
100
AcDbEntity
  8
FORMAT
 62
     0
100
AcDbLine
 10
-5.0
 20
0.0
 30
0.0
 11
-9.5
 21
0.0
 31
0.0
  0
LINE
  5
112
330
109
100
AcDbEntity
  8
FORMAT
 62
     0
100
AcDbLine
 10
0.0
 20
-5.0
 30
0.0
 11
0.0
 21
-9.5
 31
0.0
  0
LINE
  5
113
330
109
100
AcDbEntity
  8
FORMAT
 62
     0
100
AcDbLine
 10
5.0
 20
0.0
 30
0.0
 11
9.5
 21
0.0
 31
0.0
  0
ENDBLK
  5
10B
330
109
100
AcDbEntity
  8
0
100
AcDbBlockEnd
  0
ENDSEC
  0
SECTION
  2
ENTITIES
  0
LINE
  5
83
330
1F
100
AcDbEntity
  8
0
  6
Continuous
 62
     7
370
    25
100
AcDbLine
 10
171.1807140607
 20
-1.7615714286
 30
0.0
 11
211.1807140607
 21
-1.7615714286
 31
0.0
  0
LINE
  5
84
330
1F
100
AcDbEntity
  8
0
  6
Continuous
 62
     7
370
    25
100
AcDbLine
 10
71.1807140607
 20
-1.7615714286
 30
0.0
 11
111.1807140607
 21
-1.7615714286
 31
0.0
  0
LINE
  5
85
330
1F
100
AcDbEntity
  8
0
  6
Continuous
 62
     7
370
    25
100
AcDbLine
 10
74.1807140607
 20
152.2384285714
 30
0.0
 11
71.1807140607
 21
152.2384285714
 31
0.0
  0
LINE
  5
86
330
1F
100
AcDbEntity
  8
0
  6
Continuous
 62
     7
370
    25
100
AcDbLine
 10
109.690294087
 20
152.2384285714
 30
0.0
 11
88.0938379954
 21
152.2384285714
 31
0.0
  0
LINE
  5
87
330
1F
100
AcDbEntity
  8
0
  6
Continuous
 62
     7
370
    25
100
AcDbLine
 10
194.2675901261
 20
152.2384285714
 30
0.0
 11
172.65560533
 21
152.2384285714
 31
0.0
  0
LINE
  5
88
330
1F
100
AcDbEntity
  8
0
  6
Continuous
 62
     7
370
    25
100
AcDbLine
 10
211.1807140607
 20
152.2384285714
 30
0.0
 11
208.1807140607
 21
152.2384285714
 31
0.0
  0
LINE
  5
89
330
1F
100
AcDbEntity
  8
0
  6
Continuous
 62
     7
370
    25
100
AcDbLine
 10
109.6807140607
 20
220.2384285714
 30
0.0
 11
109.6807140607
 21
152.2344547227
 31
0.0
  0
LINE
  5
8A
330
1F
100
AcDbEntity
  8
0
  6
Continuous
 62
     7
370
    25
100
AcDbLine
 10
172.6807140607
 20
152.2281322382
 30
0.0
 11
172.6807140607
 21
220.2384285714
 31
0.0
  0
LINE
  5
8B
330
1F
100
AcDbEntity
  8
0
  6
Continuous
 62
     7
370
    25
100
AcDbLine
 10
74.1807140607
 20
167.2384285714
 30
0.0
 11
74.1807140607
 21
152.2384285714
 31
0.0
  0
LINE
  5
8C
330
1F
100
AcDbEntity
  8
0
  6
Continuous
 62
     7
370
    25
100
AcDbLine
 10
88.1807140607
 20
152.2384285714
 30
0.0
 11
88.1807140607
 21
167.2384285714
 31
0.0
  0
LINE
  5
8D
330
1F
100
AcDbEntity
  8
0
  6
Continuous
 62
     7
370
    25
100
AcDbLine
 10
194.1807140607
 20
167.2384285714
 30
0.0
 11
194.1807140607
 21
152.2306332541
 31
0.0
  0
LINE
  5
8E
330
1F
100
AcDbEntity
  8
0
  6
Continuous
 62
     7
370
    25
100
AcDbLine
 10
208.1807140607
 20
152.2384285714
 30
0.0
 11
208.1807140607
 21
167.2384285714
 31
0.0
  0
LINE
  5
8F
330
1F
100
AcDbEntity
  8
0
  6
Continuous
 62
     7
370
    25
100
AcDbLine
 10
211.1807140607
 20
77.2384285714
 30
0.0
 11
71.1807140607
 21
77.2384285714
 31
0.0
  0
LINE
  5
90
330
1F
100
AcDbEntity
  8
0
  6
Continuous
 62
     7
370
    25
100
AcDbLine
 10
71.1807140607
 20
84.2384285714
 30
0.0
 11
71.1807140607
 21
77.2384285714
 31
0.0
  0
LINE
  5
91
330
1F
100
AcDbEntity
  8
0
  6
Continuous
 62
     7
370
    25
100
AcDbLine
 10
211.1807140607
 20
84.2384285714
 30
0.0
 11
71.1807140607
 21
84.2384285714
 31
0.0
  0
LINE
  5
92
330
1F
100
AcDbEntity
  8
0
  6
Continuous
 62
     7
370
    25
100
AcDbLine
 10
211.1807140607
 20
84.2384285714
 30
0.0
 11
211.1807140607
 21
77.2384285714
 31
0.0
  0
LINE
  5
93
330
1F
100
AcDbEntity
  8
0
  6
Continuous
 62
     7
370
    25
100
AcDbLine
 10
71.1807140607
 20
73.2384285714
 30
0.0
 11
71.1807140607
 21
66.2384285714
 31
0.0
  0
LINE
  5
94
330
1F
100
AcDbEntity
  8
0
  6
Continuous
 62
     7
370
    25
100
AcDbLine
 10
211.1807140607
 20
73.2384285714
 30
0.0
 11
71.1807140607
 21
73.2384285714
 31
0.0
  0
LINE
  5
95
330
1F
100
AcDbEntity
  8
0
  6
Continuous
 62
     7
370
    25
100
AcDbLine
 10
211.1807140607
 20
73.2384285714
 30
0.0
 11
211.1807140607
 21
66.2384285714
 31
0.0
  0
LINE
  5
96
330
1F
100
AcDbEntity
  8
0
  6
Continuous
 62
     7
370
    25
100
AcDbLine
 10
211.1807140607
 20
66.2384285714
 30
0.0
 11
71.1807140607
 21
66.2384285714
 31
0.0
  0
ARC
  5
97
330
1F
100
AcDbEntity
  8
0
  6
Continuous
 62
     7
370
    25
100
AcDbCircle
 10
81.1804719293
 20
229.0664784689
 30
0.0
 40
77.14626278228722
100
AcDbArc
 50
264.7941882543
 51
275.1413869272
  0
SPLINE
  5
98
330
1F
100
AcDbEntity
  8
0
  6
Continuous
 62
     7
370
    25
100
AcDbSpline
210
0.0
220
0.0
230
1.0
 70
     8
 71
     3
 72
    24
 73
    20
 74
     0
 42
0.00000001
 43
0.00000001
 40
0.0
 40
0.0
 40
0.0
 40
0.0
 40
0.0498174927307099
 40
0.0996358873948519
 40
0.1509880143351765
 40
0.2023426110206379
 40
0.301840213047982
 40
0.4039499196081944
 40
0.5088391097546323
 40
0.562727991097146
 40
0.6166156922571102
 40
0.6711461576912986
 40
0.7256741359026648
 40
0.7819562626464951
 40
0.838235238946389
 40
0.8899792896508271
 40
0.9417218329858819
 40
0.9951636714512112
 40
1.0
 40
1.0
 40
1.0
 40
1.0
 10
141.1807140607425
 20
145.5004382210251
 30
0.0
 10
140.3499385783372
 20
145.5090698290345
 30
0.0
 10
138.6883725725411
 20
145.5263332013264
 30
0.0
 10
136.1892489670873
 20
145.6637809405517
 30
0.0
 10
133.7027325694324
 20
145.8828552855365
 30
0.0
 10
130.481937686407
 20
146.2799384580251
 30
0.0
 10
126.6265140038986
 20
146.9482548112042
 30
0.0
 10
122.3537485377203
 20
147.9433148818461
 30
0.0
 10
119.1351888816027
 20
148.8626092711867
 30
0.0
 10
116.8204450057368
 20
149.5979298127837
 30
0.0
 10
115.2214307411143
 20
150.138138622194
 30
0.0
 10
113.7983464125021
 20
150.6441528922534
 30
0.0
 10
112.5498191292001
 20
151.1074344852588
 30
0.0
 10
111.5015450589623
 20
151.5098949806271
 30
0.0
 10
110.6944149839309
 20
151.8285304810925
 30
0.0
 10
110.1216479148545
 20
152.0586515796905
 30
0.0
 10
109.7906201970617
 20
152.1934982316721
 30
0.0
 10
109.6505143251057
 20
152.2506747937346
 30
0.0
 10
109.687245849123
 20
152.2356940338381
 30
0.0
 10
109.690294087037
 20
152.2344508259528
 30
0.0
  0
SPLINE
  5
99
330
1F
100
AcDbEntity
  8
0
  6
Continuous
 62
     7
370
    25
100
AcDbSpline
210
0.0
220
0.0
230
1.0
 70
     8
 71
     3
 72
    23
 73
    19
 74
     0
 42
0.00000001
 43
0.00000001
 40
0.0
 40
0.0
 40
0.0
 40
0.0
 40
0.0261930328543397
 40
0.0779818895653175
 40
0.1297718698711282
 40
0.2270028252207724
 40
0.3268302198376504
 40
0.4285011131440651
 40
0.5327739690347795
 40
0.5868932935906185
 40
0.6410113978934914
 40
0.6967246035115197
 40
0.7524346519914848
 40
0.8059567247397132
 40
0.8594756174491018
 40
0.9148333273765334
 40
0.9701888149767757
 40
1.0
 40
1.0
 40
1.0
 40
1.0
 10
172.6556053300166
 20
152.2281322159667
 30
0.0
 10
172.6600277188029
 20
152.2299540971734
 30
0.0
 10
172.6731940533723
 20
152.2353782013563
 30
0.0
 10
172.4678564756135
 20
152.1512986350313
 30
0.0
 10
171.9295846472674
 20
151.9333728945772
 30
0.0
 10
170.7677314165219
 20
151.4704418817394
 30
0.0
 10
168.6735576712898
 20
150.6764020277807
 30
0.0
 10
165.855088323765
 20
149.6872760263334
 30
0.0
 10
162.9343425385048
 20
148.7726944225135
 30
0.0
 10
160.2631406900138
 20
148.0362135618684
 30
0.0
 10
158.0625880223919
 20
147.4887214542076
 30
0.0
 10
155.7095756786406
 20
146.9738438022217
 30
0.0
 10
153.2481175289173
 20
146.514855868675
 30
0.0
 10
150.7212718594805
 20
146.130765537041
 30
0.0
 10
148.1219699536235
 20
145.8256584581019
 30
0.0
 10
145.4321508674619
 20
145.6125733672397
 30
0.0
 10
143.0975346990066
 20
145.5126406113708
 30
0.0
 10
141.6777027494622
 20
145.5036020277246
 30
0.0
 10
141.1807140607425
 20
145.5004382210251
 30
0.0
  0
SPLINE
  5
9A
330
1F
100
AcDbEntity
  8
0
  6
Continuous
 62
     7
370
    25
100
AcDbSpline
210
0.0
220
0.0
230
1.0
 70
     8
 71
     3
 72
    17
 73
    13
 74
     0
 42
0.00000001
 43
0.00000001
 40
0.0
 40
0.0
 40
0.0
 40
0.0
 40
0.1070696562225386
 40
0.2141286931206325
 40
0.3214637409910123
 40
0.4289836087323174
 40
0.5362019175191292
 40
0.6431026724011314
 40
0.7501653586236249
 40
0.8576161441889506
 40
0.9650770975365995
 40
1.0
 40
1.0
 40
1.0
 40
1.0
 10
208.1807140607425
 20
152.2384285714285
 30
0.0
 10
208.1036451405008
 20
152.2312242628454
 30
0.0
 10
207.949514943825
 20
152.2168163602129
 30
0.0
 10
206.7484170575651
 20
152.116564422625
 30
0.0
 10
204.9769743824279
 20
152.0046936681027
 30
0.0
 10
202.7603814673121
 20
151.9238183565017
 30
0.0
 10
200.3705246730921
 20
151.9115755663617
 30
0.0
 10
198.0790983314296
 20
151.9721034296938
 30
0.0
 10
196.1208389844168
 20
152.0804638259075
 30
0.0
 10
194.7825047556357
 20
152.1836987315736
 30
0.0
 10
194.1441191267903
 20
152.2417108325895
 30
0.0
 10
194.2432708857522
 20
152.2327935940421
 30
0.0
 10
194.2675901260733
 20
152.2306064370062
 30
0.0
  0
LINE
  5
9B
330
1F
100
AcDbEntity
  8
0
  6
Continuous
 62
     7
370
    25
100
AcDbLine
 10
111.1807140607
 20
65.2384285714
 30
0.0
 11
171.1807140607
 21
65.2384285714
 31
0.0
  0
LINE
  5
9C
330
1F
100
AcDbEntity
  8
0
  6
Continuous
 62
     7
370
    25
100
AcDbLine
 10
111.1807140607
 20
-1.7615714286
 30
0.0
 11
111.1807140607
 21
65.2384285714
 31
0.0
  0
LINE
  5
9D
330
1F
100
AcDbEntity
  8
0
  6
Continuous
 62
     7
370
    25
100
AcDbLine
 10
171.1807140607
 20
65.2384285714
 30
0.0
 11
171.1807140607
 21
-1.7615714286
 31
0.0
  0
LINE
  5
9E
330
1F
100
AcDbEntity
  8
0
  6
Continuous
 62
     7
370
    25
100
AcDbLine
 10
71.1807140607
 20
66.2384285714
 30
0.0
 11
71.1807140607
 21
-1.7615714286
 31
0.0
  0
LINE
  5
9F
330
1F
100
AcDbEntity
  8
0
  6
Continuous
 62
     7
370
    25
100
AcDbLine
 10
71.1807140607
 20
152.2384285714
 30
0.0
 11
71.1807140607
 21
84.2384285714
 31
0.0
  0
LINE
  5
A0
330
1F
100
AcDbEntity
  8
0
  6
Continuous
 62
     7
370
    25
100
AcDbLine
 10
211.1807140607
 20
66.2384285714
 30
0.0
 11
211.1807140607
 21
-1.7615714286
 31
0.0
  0
LINE
  5
A1
330
1F
100
AcDbEntity
  8
0
  6
Continuous
 62
     7
370
    25
100
AcDbLine
 10
211.1807140607
 20
152.2384285714
 30
0.0
 11
211.1807140607
 21
84.2384285714
 31
0.0
  0
LINE
  5
A2
330
1F
100
AcDbEntity
  8
0
  6
Continuous
 62
     7
370
    25
100
AcDbLine
 10
71.1807140607
 20
77.2384285714
 30
0.0
 11
71.1807140607
 21
73.2384285714
 31
0.0
  0
LINE
  5
A3
330
1F
100
AcDbEntity
  8
0
  6
Continuous
 62
     7
370
    25
100
AcDbLine
 10
211.1807140607
 20
77.2384285714
 30
0.0
 11
211.1807140607
 21
73.2384285714
 31
0.0
  0
LINE
  5
A4
330
1F
100
AcDbEntity
  8
0
  6
Continuous
 62
     7
370
    25
100
AcDbLine
 10
141.1807140607
 20
220.2384285714
 30
0.0
 11
172.6807140607
 21
220.2384285714
 31
0.0
  0
LINE
  5
A5
330
1F
100
AcDbEntity
  8
0
  6
Continuous
 62
     7
370
    25
100
AcDbLine
 10
109.6807140607
 20
220.2384285714
 30
0.0
 11
141.1807140607
 21
220.2384285714
 31
0.0
  0
LINE
  5
A6
330
1F
100
AcDbEntity
  8
0
  6
Continuous
 62
     7
370
    25
100
AcDbLine
 10
74.1807140607
 20
167.2384285714
 30
0.0
 11
88.1807140607
 21
167.2384285714
 31
0.0
  0
LINE
  5
A7
330
1F
100
AcDbEntity
  8
0
  6
Continuous
 62
     7
370
    25
100
AcDbLine
 10
208.1807140607
 20
167.2384285714
 30
0.0
 11
194.1807140607
 21
167.2384285714
 31
0.0
  0
LINE
  5
A8
330
1F
100
AcDbEntity
  8
0
  6
Continuous
 62
     7
370
    25
100
AcDbLine
 10
349.4640852308
 20
167.2384285714
 30
0.0
 11
349.4640852308
 21
151.9276041121
 31
0.0
  0
LINE
  5
A9
330
1F
100
AcDbEntity
  8
0
  6
Continuous
 62
     7
370
    25
100
AcDbLine
 10
363.4640852308
 20
151.9200204622
 30
0.0
 11
363.4640852308
 21
167.2384285714
 31
0.0
  0
LINE
  5
AA
330
1F
100
AcDbEntity
  8
0
  6
Continuous
 62
     7
370
    25
100
AcDbLine
 10
324.9640852308
 20
220.2384285714
 30
0.0
 11
324.9640852308
 21
145.5214361999
 31
0.0
  0
LINE
  5
AB
330
1F
100
AcDbEntity
  8
0
  6
Continuous
 62
     7
370
    25
100
AcDbLine
 10
387.9640852308
 20
145.500438221
 30
0.0
 11
387.9640852308
 21
220.2384285714
 31
0.0
  0
LINE
  5
AC
330
1F
100
AcDbEntity
  8
0
  6
Continuous
 62
     7
370
    25
100
AcDbLine
 10
432.936302408
 20
84.2384285714
 30
0.0
 11
447.936302408
 21
84.2384285714
 31
0.0
  0
LINE
  5
AD
330
1F
100
AcDbEntity
  8
0
  6
Continuous
 62
     7
370
    25
100
AcDbLine
 10
447.936302408
 20
84.2384285714
 30
0.0
 11
447.936302408
 21
77.2384285714
 31
0.0
  0
LINE
  5
AE
330
1F
100
AcDbEntity
  8
0
  6
Continuous
 62
     7
370
    25
100
AcDbLine
 10
447.936302408
 20
77.2384285714
 30
0.0
 11
426.4355079689
 21
77.2384285714
 31
0.0
  0
ARC
  5
AF
330
1F
100
AcDbEntity
  8
0
  6
Continuous
 62
     7
370
    25
100
AcDbCircle
 10
356.4640852308
 20
75.2384285714
 30
0.0
 40
69.99999999999999
100
AcDbArc
 50
1.6372450778
 51
358.3627549222
  0
LINE
  5
B0
330
1F
100
AcDbEntity
  8
0
  6
Continuous
 62
     7
370
    25
100
AcDbLine
 10
426.4355079689
 20
73.2384285714
 30
0.0
 11
447.936302408
 21
73.2384285714
 31
0.0
  0
LINE
  5
B1
330
1F
100
AcDbEntity
  8
0
  6
Continuous
 62
     7
370
    25
100
AcDbLine
 10
447.936302408
 20
73.2384285714
 30
0.0
 11
447.936302408
 21
66.2384285714
 31
0.0
  0
LINE
  5
B2
330
1F
100
AcDbEntity
  8
0
  6
Continuous
 62
     7
370
    25
100
AcDbLine
 10
447.936302408
 20
66.2384285714
 30
0.0
 11
432.936302408
 21
66.2384285714
 31
0.0
  0
ARC
  5
B3
330
1F
100
AcDbEntity
  8
0
  6
Continuous
 62
     7
370
    25
100
AcDbCircle
 10
356.4640852308
 20
75.2384285714
 30
0.0
 40
76.99999999999997
100
AcDbArc
 50
6.7122522934
 51
353.2877477066
  0
LINE
  5
B4
330
1F
100
AcDbEntity
  8
0
  6
Continuous
 62
     7
370
    25
100
AcDbLine
 10
356.4640852308
 20
167.2384285714
 30
0.0
 11
363.4640852308
 21
167.2384285714
 31
0.0
  0
LINE
  5
B5
330
1F
100
AcDbEntity
  8
0
  6
Continuous
 62
     7
370
    25
100
AcDbLine
 10
349.4640852308
 20
167.2384285714
 30
0.0
 11
356.4640852308
 21
167.2384285714
 31
0.0
  0
LINE
  5
B6
330
1F
100
AcDbEntity
  8
0
  6
Continuous
 62
     7
370
    25
100
AcDbLine
 10
324.9640852308
 20
220.2384285714
 30
0.0
 11
387.9640852308
 21
220.2384285714
 31
0.0
  0
LINE
  5
B7
330
1F
100
AcDbEntity
  8
0
  6
Continuous
 62
     7
370
    25
100
AcDbLine
 10
71.1807140607
 20
266.1737981991
 30
0.0
 11
211.1807140607
 21
266.1737981991
 31
0.0
  0
LINE
  5
B8
330
1F
100
AcDbEntity
  8
0
  6
Continuous
 62
     7
370
    25
100
AcDbLine
 10
211.1807140607
 20
419.6460153763
 30
0.0
 11
71.1807140607
 21
419.6460153763
 31
0.0
  0
LINE
  5
B9
330
1F
100
AcDbEntity
  8
0
  6
Continuous
 62
     7
370
    25
100
AcDbLine
 10
211.1807140607
 20
419.6460153763
 30
0.0
 11
211.1807140607
 21
266.1737981991
 31
0.0
  0
LINE
  5
BA
330
1F
100
AcDbEntity
  8
0
  6
Continuous
 62
     7
370
    25
100
AcDbLine
 10
71.1807140607
 20
419.6460153763
 30
0.0
 11
71.1807140607
 21
266.1737981991
 31
0.0
  0
LINE
  5
BB
330
1F
100
AcDbEntity
  8
0
  6
Continuous
 62
     7
370
    25
100
AcDbLine
 10
111.1807140607
 20
419.5216861856
 30
0.0
 11
171.1807140607
 21
419.5216861856
 31
0.0
  0
LINE
  5
BC
330
1F
100
AcDbEntity
  8
0
  6
Continuous
 62
     7
370
    25
100
AcDbLine
 10
111.1807140607
 20
266.8259102126
 30
0.0
 11
111.1807140607
 21
419.5216861856
 31
0.0
  0
LINE
  5
BD
330
1F
100
AcDbEntity
  8
0
  6
Continuous
 62
     7
370
    25
100
AcDbLine
 10
171.1807140607
 20
266.8259102126
 30
0.0
 11
111.1807140607
 21
266.8259102126
 31
0.0
  0
LINE
  5
BE
330
1F
100
AcDbEntity
  8
0
  6
Continuous
 62
     7
370
    25
100
AcDbLine
 10
171.1807140607
 20
419.5216861856
 30
0.0
 11
171.1807140607
 21
266.8259102126
 31
0.0
  0
SPLINE
  5
BF
330
1F
100
AcDbEntity
  8
0
  6
Continuous
 62
     7
370
    25
100
AcDbSpline
210
0.0
220
0.0
230
1.0
 70
    11
 71
     3
 72
   125
 73
   121
 74
     0
 42
0.00000001
 43
0.00000001
 40
0.0
 40
0.0
 40
0.0
 40
0.0
 40
0.0312500000000001
 40
0.0312500000000001
 40
0.0468750000000002
 40
0.0468750000000002
 40
0.0546875000000002
 40
0.0546875000000002
 40
0.0625000000000003
 40
0.0625000000000003
 40
0.0937500000000005
 40
0.0937500000000005
 40
0.1093750000000006
 40
0.1093750000000006
 40
0.1250000000000006
 40
0.1250000000000006
 40
0.1406250000000007
 40
0.1406250000000007
 40
0.1562500000000008
 40
0.1562500000000008
 40
0.1875000000000009
 40
0.1875000000000009
 40
0.203125000000001
 40
0.203125000000001
 40
0.218750000000001
 40
0.218750000000001
 40
0.2500000000000012
 40
0.2500000000000012
 40
0.2578125000000012
 40
0.2578125000000012
 40
0.2656250000000012
 40
0.2656250000000012
 40
0.2812500000000013
 40
0.2812500000000013
 40
0.3125000000000014
 40
0.3125000000000014
 40
0.3281250000000014
 40
0.3281250000000014
 40
0.3437500000000015
 40
0.3437500000000015
 40
0.3593750000000016
 40
0.3593750000000016
 40
0.3671875000000016
 40
0.3671875000000016
 40
0.3750000000000016
 40
0.3750000000000016
 40
0.4062500000000016
 40
0.4062500000000016
 40
0.4140625000000017
 40
0.4140625000000017
 40
0.4218750000000017
 40
0.4218750000000017
 40
0.4375000000000017
 40
0.4375000000000017
 40
0.4687500000000018
 40
0.4687500000000018
 40
0.4765625000000019
 40
0.4765625000000019
 40
0.4843750000000019
 40
0.4843750000000019
 40
0.500000000000002
 40
0.5156250000000021
 40
0.5156250000000021
 40
0.5234375000000021
 40
0.5234375000000021
 40
0.5312500000000021
 40
0.5312500000000021
 40
0.5625000000000021
 40
0.5625000000000021
 40
0.5703125000000021
 40
0.5703125000000021
 40
0.5781250000000022
 40
0.5781250000000022
 40
0.5937500000000021
 40
0.5937500000000021
 40
0.625000000000002
 40
0.625000000000002
 40
0.6406250000000019
 40
0.6406250000000019
 40
0.6562500000000019
 40
0.6562500000000019
 40
0.6718750000000018
 40
0.6718750000000018
 40
0.6875000000000018
 40
0.6875000000000018
 40
0.7187500000000018
 40
0.7187500000000018
 40
0.7343750000000017
 40
0.7343750000000017
 40
0.7500000000000017
 40
0.7500000000000017
 40
0.7812500000000017
 40
0.7812500000000017
 40
0.7890625000000017
 40
0.7890625000000017
 40
0.7968750000000017
 40
0.7968750000000017
 40
0.8125000000000017
 40
0.8125000000000017
 40
0.8281250000000016
 40
0.8281250000000016
 40
0.8437500000000016
 40
0.8437500000000016
 40
0.8750000000000014
 40
0.8750000000000014
 40
0.8828125000000013
 40
0.8828125000000013
 40
0.8906250000000012
 40
0.8906250000000012
 40
0.9062500000000011
 40
0.9062500000000011
 40
0.9375000000000008
 40
0.9375000000000008
 40
0.9453125000000007
 40
0.9453125000000007
 40
0.9531250000000006
 40
0.9531250000000006
 40
0.9687500000000004
 40
0.9687500000000004
 40
1.0
 40
1.0
 40
1.0
 40
1.0
 10
141.1807140607425
 20
317.4737981990844
 30
0.0
 10
142.894940859997
 20
317.4737981990844
 30
0.0
 10
144.5772112997005
 20
317.6435593869427
 30
0.0
 10
147.0554888585114
 20
318.1400840739229
 30
0.0
 10
147.8740089421109
 20
318.3462204262632
 30
0.0
 10
149.0903314540225
 20
318.7175585801133
 30
0.0
 10
149.4948670362785
 20
318.8521146843954
 30
0.0
 10
150.2918786211885
 20
319.1393206919327
 30
0.0
 10
150.6850445437051
 20
319.2921229856959
 30
0.0
 10
152.6249404278653
 20
320.101151500182
 30
0.0
 10
154.0946412734719
 20
320.8910001638652
 30
0.0
 10
156.1808463779751
 20
322.2887154472966
 30
0.0
 10
156.85916190345
 20
322.7930305844663
 30
0.0
 10
158.151020991799
 20
323.8554624016276
 30
0.0
 10
158.7670430196987
 20
324.4147906104051
 30
0.0
 10
159.9411601990362
 20
325.5890038398396
 30
0.0
 10
160.499251974497
 20
326.2038898920923
 30
0.0
 10
161.5574799742101
 20
327.4903321924696
 30
0.0
 10
162.0582868109175
 20
328.162875985628
 30
0.0
 10
163.466697308364
 20
330.2637916446368
 30
0.0
 10
164.2559761726979
 20
331.736107565939
 30
0.0
 10
165.2219846570749
 20
334.0520149165969
 30
0.0
 10
165.5073844666258
 20
334.8420158687065
 30
0.0
 10
166.0025926012631
 20
336.4596463124409
 30
0.0
 10
166.2127309780892
 20
337.2910302062284
 30
0.0
 10
166.7126721850672
 20
339.784928893527
 30
0.0
 10
166.8795794827578
 20
341.4630297685107
 30
0.0
 10
166.8809905691742
 20
343.5800778783333
 30
0.0
 10
166.8708167365341
 20
344.0044665844803
 30
0.0
 10
166.8291867641511
 20
344.8552361080518
 30
0.0
 10
166.7975874336421
 20
345.2829035331272
 30
0.0
 10
166.6712006722452
 20
346.558351221544
 30
0.0
 10
166.5453877189053
 20
347.3970223335288
 30
0.0
 10
166.0477972306054
 20
349.8795675153171
 30
0.0
 10
165.5570493295777
 20
351.4902675381684
 30
0.0
 10
164.5782567379142
 20
353.8398585083821
 30
0.0
 10
164.2150942132322
 20
354.6022211383958
 30
0.0
 10
163.4220969894685
 20
356.0777667865758
 30
0.0
 10
162.9915823694719
 20
356.7925697601814
 30
0.0
 10
162.0631757054619
 20
358.1773881318605
 30
0.0
 10
161.5652858011101
 20
358.8474033215622
 30
0.0
 10
160.7667737068009
 20
359.818675284375
 30
0.0
 10
160.4912179053032
 20
360.1375996404827
 30
0.0
 10
159.9270545101001
 20
360.7590430887856
 30
0.0
 10
159.6384434114691
 20
361.0616753579508
 30
0.0
 10
158.1631774024866
 20
362.5353242601199
 30
0.0
 10
156.8809267172007
 20
363.5890544901957
 30
0.0
 10
155.1469865716759
 20
364.7517398891752
 30
0.0
 10
154.7935769778183
 20
364.9764750331002
 30
0.0
 10
154.0731526752427
 20
365.4100699301767
 30
0.0
 10
153.7051978511761
 20
365.6193927705478
 30
0.0
 10
152.5918135503952
 20
366.2169413868224
 30
0.0
 10
151.8345285291323
 20
366.5764904675418
 30
0.0
 10
149.5178849189518
 20
367.5414130728665
 30
0.0
 10
147.9141796592916
 20
368.0342691587221
 30
0.0
 10
145.8299470721587
 20
368.4533436531056
 30
0.0
 10
145.4078087024337
 20
368.5273664030076
 30
0.0
 10
144.5645654116003
 20
368.6536196234214
 30
0.0
 10
144.142885196837
 20
368.7060358628583
 30
0.0
 10
142.8776714502021
 20
368.8317177880158
 30
0.0
 10
141.19025886807
 20
368.9152633413582
 30
0.0
 10
139.5019344227197
 20
368.8329415704662
 30
0.0
 10
138.2353443399302
 20
368.7079866943992
 30
0.0
 10
137.8130897657357
 20
368.6557804608029
 30
0.0
 10
136.9684629295541
 20
368.529847847771
 30
0.0
 10
136.5469421960996
 20
368.4561774972146
 30
0.0
 10
134.4638406174929
 20
368.0386795749642
 30
0.0
 10
132.8562383189719
 20
367.5463002376121
 30
0.0
 10
130.9163459368797
 20
366.7388009896086
 30
0.0
 10
130.5318794054859
 20
366.5676050933219
 30
0.0
 10
129.7699958915939
 20
366.2055890843832
 30
0.0
 10
129.391651322024
 20
366.0142386935957
 30
0.0
 10
128.277474878488
 20
365.4158149144931
 30
0.0
 10
127.5605838806877
 20
364.9838100686468
 30
0.0
 10
125.4839570571564
 20
363.591439469778
 30
0.0
 10
124.1975043969318
 20
362.5357563509597
 30
0.0
 10
122.4147366237517
 20
360.7531696134535
 30
0.0
 10
121.8517308677636
 20
360.1318116002802
 30
0.0
 10
120.794211061794
 20
358.8446088119231
 30
0.0
 10
120.2983031762202
 20
358.1773711322463
 30
0.0
 10
119.3715694046856
 20
356.7952333100375
 30
0.0
 10
118.9407410043504
 20
356.0803366338613
 30
0.0
 10
118.1456580086303
 20
354.6010169592844
 30
0.0
 10
117.7798129833239
 20
353.8321271480302
 30
0.0
 10
116.8066212316924
 20
351.4949872749979
 30
0.0
 10
116.3163914919364
 20
349.8894723133411
 30
0.0
 10
115.8180669556863
 20
347.4090473922276
 30
0.0
 10
115.6917492726319
 20
346.570135291381
 30
0.0
 10
115.5222684685539
 20
344.866902273484
 30
0.0
 10
115.4805262742938
 20
344.0149612159736
 30
0.0
 10
115.4810915419339
 20
341.4743181875581
 30
0.0
 10
115.6472712360244
 20
339.7936048772037
 30
0.0
 10
116.0648195459595
 20
337.7091281899878
 30
0.0
 10
116.1592425417022
 20
337.2918477471358
 30
0.0
 10
116.3678719644084
 20
336.4660232177874
 30
0.0
 10
116.4819683941154
 20
336.0575813099019
 30
0.0
 10
116.8529398780771
 20
334.8453094651237
 30
0.0
 10
117.1384238595083
 20
334.0545026147934
 30
0.0
 10
117.784075545125
 20
332.5065316212043
 30
0.0
 10
118.1442449524288
 20
331.7493690640266
 30
0.0
 10
118.9399573204554
 20
330.2685578038177
 30
0.0
 10
119.3778966759594
 20
329.5418155283383
 30
0.0
 10
120.7810671462921
 20
327.4524879621916
 30
0.0
 10
121.8385236614839
 20
326.1694957669143
 30
0.0
 10
123.3121140482727
 20
324.6974167078473
 30
0.0
 10
123.6144978085306
 20
324.4096498828013
 30
0.0
 10
124.2348934325228
 20
323.8475368252141
 30
0.0
 10
124.5537034404758
 20
323.5725466426501
 30
0.0
 10
125.5281652574221
 20
322.7729674576659
 30
0.0
 10
126.1992243232678
 20
322.2755087934043
 30
0.0
 10
128.27581262615
 20
320.8864103235632
 30
0.0
 10
129.7440796290996
 20
320.096941923794
 30
0.0
 10
131.6914810407041
 20
319.2860931898437
 30
0.0
 10
132.0877040699465
 20
319.1324315127652
 30
0.0
 10
132.8865267653229
 20
318.8452840655152
 30
0.0
 10
133.288034956718
 20
318.7121218825131
 30
0.0
 10
134.4987763848515
 20
318.3432993011817
 30
0.0
 10
135.3142131481242
 20
318.1382276641123
 30
0.0
 10
137.7852685594748
 20
317.64374826327
 30
0.0
 10
139.4664872614879
 20
317.4737981990844
 30
0.0
 10
141.1807140607425
 20
317.4737981990844
 30
0.0
  0
LINE
  5
C0
330
1F
100
AcDbEntity
  8
0
  6
Continuous
 62
     7
370
    25
100
AcDbLine
 10
171.1807140607
 20
412.4558305018
 30
0.0
 11
111.1807140607
 21
412.4558305018
 31
0.0
  0
LINE
  5
C1
330
1F
100
AcDbEntity
  8
0
  6
Continuous
 62
     7
370
    25
100
AcDbLine
 10
111.1807140607
 20
273.8917658963
 30
0.0
 11
171.1807140607
 21
273.8917658963
 31
0.0
  0
LINE
  5
C2
330
1F
100
AcDbEntity
  8
0
  6
Continuous
 62
     7
370
    25
100
AcDbLine
 10
211.1807140607
 20
434.6460153763
 30
0.0
 11
71.1807140607
 21
434.6460153763
 31
0.0
  0
LINE
  5
C3
330
1F
100
AcDbEntity
  8
0
  6
Continuous
 62
     7
370
    25
100
AcDbLine
 10
71.1807140607
 20
434.6460153763
 30
0.0
 11
71.1807140607
 21
419.6460153763
 31
0.0
  0
LINE
  5
C4
330
1F
100
AcDbEntity
  8
0
  6
Continuous
 62
     7
370
    25
100
AcDbLine
 10
211.1807140607
 20
434.6460153763
 30
0.0
 11
211.1807140607
 21
419.6460153763
 31
0.0
  0
INSERT
  5
D0
330
1F
100
AcDbEntity
  8
FORMAT
100
AcDbBlockReference
  2
SW_CENTERMARKSYMBOL_0
 10
141.1807140607
 20
343.1737981991
 30
0.0
  0
LINE
  5
D1
330
1F
100
AcDbEntity
  8
0
  6
Continuous
 62
     7
370
    25
100
AcDbLine
 10
-65.0092124868
 20
167.2384285714
 30
0.0
 11
-65.0092124868
 21
151.9276041121
 31
0.0
  0
LINE
  5
D2
330
1F
100
AcDbEntity
  8
0
  6
Continuous
 62
     7
370
    25
100
AcDbLine
 10
-51.0092124868
 20
151.9200204622
 30
0.0
 11
-51.0092124868
 21
167.2384285714
 31
0.0
  0
LINE
  5
D3
330
1F
100
AcDbEntity
  8
0
  6
Continuous
 62
     7
370
    25
100
AcDbLine
 10
-89.5092124868
 20
220.2384285714
 30
0.0
 11
-89.5092124868
 21
145.500438221
 31
0.0
  0
LINE
  5
D4
330
1F
100
AcDbEntity
  8
0
  6
Continuous
 62
     7
370
    25
100
AcDbLine
 10
-26.5092124868
 20
145.5214361999
 30
0.0
 11
-26.5092124868
 21
220.2384285714
 31
0.0
  0
LINE
  5
D5
330
1F
100
AcDbEntity
  8
0
  6
Continuous
 62
     7
370
    25
100
AcDbLine
 10
-149.481429664
 20
66.2384285714
 30
0.0
 11
-134.481429664
 21
66.2384285714
 31
0.0
  0
LINE
  5
D6
330
1F
100
AcDbEntity
  8
0
  6
Continuous
 62
     7
370
    25
100
AcDbLine
 10
-149.481429664
 20
73.2384285714
 30
0.0
 11
-149.481429664
 21
66.2384285714
 31
0.0
  0
LINE
  5
D7
330
1F
100
AcDbEntity
  8
0
  6
Continuous
 62
     7
370
    25
100
AcDbLine
 10
-127.9806352249
 20
73.2384285714
 30
0.0
 11
-149.481429664
 21
73.2384285714
 31
0.0
  0
ARC
  5
D8
330
1F
100
AcDbEntity
  8
0
  6
Continuous
 62
     7
370
    25
100
AcDbCircle
 10
-58.0092124868
 20
75.2384285714
 30
0.0
 40
70.00000000000001
100
AcDbArc
 50
181.6372450778
 51
178.3627549222
  0
LINE
  5
D9
330
1F
100
AcDbEntity
  8
0
  6
Continuous
 62
     7
370
    25
100
AcDbLine
 10
-149.481429664
 20
77.2384285714
 30
0.0
 11
-127.9806352249
 21
77.2384285714
 31
0.0
  0
LINE
  5
DA
330
1F
100
AcDbEntity
  8
0
  6
Continuous
 62
     7
370
    25
100
AcDbLine
 10
-149.481429664
 20
84.2384285714
 30
0.0
 11
-149.481429664
 21
77.2384285714
 31
0.0
  0
LINE
  5
DB
330
1F
100
AcDbEntity
  8
0
  6
Continuous
 62
     7
370
    25
100
AcDbLine
 10
-134.481429664
 20
84.2384285714
 30
0.0
 11
-149.481429664
 21
84.2384285714
 31
0.0
  0
ARC
  5
DC
330
1F
100
AcDbEntity
  8
0
  6
Continuous
 62
     7
370
    25
100
AcDbCircle
 10
-58.0092124868
 20
75.2384285714
 30
0.0
 40
77.0
100
AcDbArc
 50
186.7122522934
 51
173.2877477066
  0
LINE
  5
DD
330
1F
100
AcDbEntity
  8
0
  6
Continuous
 62
     7
370
    25
100
AcDbLine
 10
-58.0092124868
 20
167.2384285714
 30
0.0
 11
-65.0092124868
 21
167.2384285714
 31
0.0
  0
LINE
  5
DE
330
1F
100
AcDbEntity
  8
0
  6
Continuous
 62
     7
370
    25
100
AcDbLine
 10
-51.0092124868
 20
167.2384285714
 30
0.0
 11
-58.0092124868
 21
167.2384285714
 31
0.0
  0
LINE
  5
DF
330
1F
100
AcDbEntity
  8
0
  6
Continuous
 62
     7
370
    25
100
AcDbLine
 10
-89.5092124868
 20
220.2384285714
 30
0.0
 11
-26.5092124868
 21
220.2384285714
 31
0.0
  0
LINE
  5
E0
330
1F
100
AcDbEntity
  8
0
  6
Continuous
 62
     7
370
    25
100
AcDbLine
 10
211.1807140607
 20
-65.1957406706
 30
0.0
 11
71.1807140607
 21
-65.1957406706
 31
0.0
  0
CIRCLE
  5
E1
330
1F
100
AcDbEntity
  8
0
  6
Continuous
 62
     7
370
    25
100
AcDbCircle
 10
141.1807140607
 20
-142.1957406706
 30
0.0
 40
25.70000000000002
  0
CIRCLE
  5
E2
330
1F
100
AcDbEntity
  8
0
  6
Continuous
 62
     7
370
    25
100
AcDbCircle
 10
141.1807140607
 20
-142.1957406706
 30
0.0
 40
31.5
  0
CIRCLE
  5
E3
330
1F
100
AcDbEntity
  8
0
  6
Continuous
 62
     7
370
    25
100
AcDbCircle
 10
81.1807140607
 20
-142.1957406706
 30
0.0
 40
4.600000000000023
  0
CIRCLE
  5
E4
330
1F
100
AcDbEntity
  8
0
  6
Continuous
 62
     7
370
    25
100
AcDbCircle
 10
81.1807140607
 20
-142.1957406706
 30
0.0
 40
7.000000000000028
  0
CIRCLE
  5
E5
330
1F
100
AcDbEntity
  8
0
  6
Continuous
 62
     7
370
    25
100
AcDbCircle
 10
201.1807140607
 20
-142.1957406706
 30
0.0
 40
4.600000000000051
  0
CIRCLE
  5
E6
330
1F
100
AcDbEntity
  8
0
  6
Continuous
 62
     7
370
    25
100
AcDbCircle
 10
201.1807140607
 20
-142.1957406706
 30
0.0
 40
7.000000000000057
  0
CIRCLE
  5
E7
330
1F
100
AcDbEntity
  8
0
  6
Continuous
 62
     7
370
    25
100
AcDbCircle
 10
81.1807140607
 20
-142.1957406706
 30
0.0
 40
1.500000000000014
  0
CIRCLE
  5
E8
330
1F
100
AcDbEntity
  8
0
  6
Continuous
 62
     7
370
    25
100
AcDbCircle
 10
81.1807140607
 20
-142.1957406706
 30
0.0
 40
2.000000000000028
  0
CIRCLE
  5
E9
330
1F
100
AcDbEntity
  8
0
  6
Continuous
 62
     7
370
    25
100
AcDbCircle
 10
201.1807140607
 20
-142.1957406706
 30
0.0
 40
1.500000000000028
  0
CIRCLE
  5
EA
330
1F
100
AcDbEntity
  8
0
  6
Continuous
 62
     7
370
    25
100
AcDbCircle
 10
201.1807140607
 20
-142.1957406706
 30
0.0
 40
2.000000000000028
  0
LINE
  5
EB
330
1F
100
AcDbEntity
  8
0
  6
Continuous
 62
     7
370
    25
100
AcDbLine
 10
211.1807140607
 20
-65.1957406706
 30
0.0
 11
211.1807140607
 21
-218.6679578478
 31
0.0
  0
LINE
  5
EC
330
1F
100
AcDbEntity
  8
0
  6
Continuous
 62
     7
370
    25
100
AcDbLine
 10
211.1807140607
 20
-218.6679578478
 30
0.0
 11
71.1807140607
 21
-218.6679578478
 31
0.0
  0
LINE
  5
ED
330
1F
100
AcDbEntity
  8
0
  6
Continuous
 62
     7
370
    25
100
AcDbLine
 10
71.1807140607
 20
-65.1957406706
 30
0.0
 11
71.1807140607
 21
-218.6679578478
 31
0.0
  0
LINE
  5
EE
330
1F
100
AcDbEntity
  8
0
  6
Continuous
 62
     7
370
    25
100
AcDbLine
 10
211.1807140607
 20
-233.6679578478
 30
0.0
 11
71.1807140607
 21
-233.6679578478
 31
0.0
  0
LINE
  5
EF
330
1F
100
AcDbEntity
  8
0
  6
Continuous
 62
     7
370
    25
100
AcDbLine
 10
71.1807140607
 20
-218.6679578478
 30
0.0
 11
71.1807140607
 21
-233.6679578478
 31
0.0
  0
LINE
  5
F0
330
1F
100
AcDbEntity
  8
0
  6
Continuous
 62
     7
370
    25
100
AcDbLine
 10
211.1807140607
 20
-218.6679578478
 30
0.0
 11
211.1807140607
 21
-233.6679578478
 31
0.0
  0
INSERT
  5
FC
330
1F
100
AcDbEntity
  8
FORMAT
100
AcDbBlockReference
  2
SW_CENTERMARKSYMBOL_1
 10
141.1807140607
 20
-142.1957406706
 30
0.0
  0
INSERT
  5
108
330
1F
100
AcDbEntity
  8
FORMAT
100
AcDbBlockReference
  2
SW_CENTERMARKSYMBOL_2
 10
81.1807140607
 20
-142.1957406706
 30
0.0
  0
INSERT
  5
114
330
1F
100
AcDbEntity
  8
FORMAT
100
AcDbBlockReference
  2
SW_CENTERMARKSYMBOL_3
 10
201.1807140607
 20
-142.1957406706
 30
0.0
  0
LINE
  5
115
330
1F
100
AcDbEntity
  8
0
  6
Continuous
 62
     7
370
    25
100
AcDbLine
 10
442.4712237729
 20
-209.3596494726
 30
0.0
 11
470.7554950203
 21
-193.0314872362
 31
0.0
  0
LINE
  5
116
330
1F
100
AcDbEntity
  8
0
  6
Continuous
 62
     7
370
    25
100
AcDbLine
 10
371.7605456542
 20
-250.1800550637
 30
0.0
 11
400.0448169017
 21
-233.8518928273
 31
0.0
  0
LINE
  5
117
330
1F
100
AcDbEntity
  8
0
  6
Continuous
 62
     7
370
    25
100
AcDbLine
 10
393.7617526074
 20
-59.6599624295
 30
0.0
 11
294.7668032412
 21
-116.8085302571
 31
0.0
  0
LINE
  5
118
330
1F
100
AcDbEntity
  8
0
  6
Continuous
 62
     7
370
    25
100
AcDbLine
 10
418.187556002
 20
-55.3060106985
 30
0.0
 11
418.187556002
 21
-57.4849303358
 31
0.0
  0
LINE
  5
119
330
1F
100
AcDbEntity
  8
0
  6
Continuous
 62
     7
370
    25
100
AcDbLine
 10
432.187556002
 20
-63.4311093022
 30
0.0
 11
432.187556002
 21
-55.3060106985
 31
0.0
  0
LINE
  5
11A
330
1F
100
AcDbEntity
  8
0
  6
Continuous
 62
     7
370
    25
100
AcDbLine
 10
351.2611491308
 20
-36.5215910232
 30
0.0
 11
351.2611491308
 21
-84.1950385728
 31
0.0
  0
LINE
  5
11B
330
1F
100
AcDbEntity
  8
0
  6
Continuous
 62
     7
370
    25
100
AcDbLine
 10
414.2611491308
 20
-56.6165621823
 30
0.0
 11
414.2611491308
 21
-36.5215910232
 31
0.0
  0
LINE
  5
11C
330
1F
100
AcDbEntity
  8
0
  6
Continuous
 62
     7
370
    25
100
AcDbLine
 10
367.5779987577
 20
-96.3552620849
 30
0.0
 11
378.1846004755
 21
-102.4783229235
 31
0.0
  0
LINE
  5
11D
330
1F
100
AcDbEntity
  8
0
  6
Continuous
 62
     7
370
    25
100
AcDbLine
 10
367.5779987577
 20
-90.6394764017
 30
0.0
 11
367.5779987577
 21
-96.3552620849
 31
0.0
  0
LINE
  5
11E
330
1F
100
AcDbEntity
  8
0
  6
Continuous
 62
     7
370
    25
100
AcDbLine
 10
382.7813563064
 20
-99.416187897
 30
0.0
 11
367.5779987577
 21
-90.6394764017
 31
0.0
  0
LWPOLYLINE
  5
11F
330
1F
100
AcDbEntity
  8
0
  6
Continuous
 62
     7
370
    25
100
AcDbPolyline
 90
      113
 70
   128
 43
0.0
 10
382.7813563064
 20
-96.1500246495
 10
382.936359101
 20
-93.0675790503
 10
383.2437384654
 20
-90.0879432012
 10
383.7025447797
 20
-87.2203224112
 10
384.3113606043
 20
-84.4735759293
 10
385.0683050589
 20
-81.8561895744
 10
385.9710396339
 20
-79.3762495192
 10
387.0167754142
 20
-77.0414173089
 10
388.2022816961
 20
-74.8589061915
 10
389.5238959677
 20
-72.835458833
 10
390.9775352241
 20
-70.9773264866
 10
392.5587085812
 20
-69.2902496802
 10
394.2625311506
 20
-67.7794404814
 10
396.0837391301
 20
-66.4495663952
 10
398.0167060663
 20
-65.3047359445
 10
400.0554602367
 20
-64.3484859771
 10
402.1937030993
 20
-63.5837707385
 10
404.4248287506
 20
-63.0129527459
 10
406.7419443346
 20
-62.6377954884
 10
409.1378913371
 20
-62.4594579798
 10
411.6052677018
 20
-62.4784911771
 10
414.1364506979
 20
-62.6948362792
 10
416.7236204698
 20
-63.1078249079
 10
419.3587841961
 20
-63.7161811729
 10
422.0338007825
 20
-64.5180256141
 10
424.7404060129
 20
-65.5108810072
 10
427.4702380811
 20
-66.6916800174
 10
430.2148634236
 20
-68.0567746755
 10
432.9658027746
 20
-69.601947648
 10
435.7145573616
 20
-71.322425266
 10
438.452635162
 20
-73.2128922733
 10
441.1715771378
 20
-75.267508247
 10
443.8629833697
 20
-77.4799256414
 10
446.5185390071
 20
-79.8433093977
 10
449.1300399569
 20
-82.3503580608
 10
451.6894182288
 20
-84.9933263358
 10
454.1887668604
 20
-87.7640490171
 10
456.6203643457
 20
-90.6539662133
 10
458.9766984893
 20
-93.6541497931
 10
461.2504896151
 20
-96.7553309669
 10
463.434713056
 20
-99.9479289227
 10
465.5226208558
 20
-103.2220804247
 10
467.5077626168
 20
-106.567670285
 10
469.3840054273
 20
-109.9743626136
 10
471.1455528089
 20
-113.4316327498
 10
472.7869626239
 20
-116.9287997778
 10
474.3031638889
 20
-120.4550595238
 10
475.6894724403
 20
-123.9995179348
 10
476.9416054063
 20
-127.5512247348
 10
478.055694438
 20
-131.0992072545
 10
479.0282976604
 20
-134.6325043304
 10
479.8564103061
 20
-138.1402001683
 10
480.5374739976
 20
-141.6114580667
 10
481.0693846518
 20
-145.0355538958
 10
481.4504989799
 20
-148.4019092286
 10
481.6796395644
 20
-151.700124022
 10
481.7560984969
 20
-154.9200087466
 10
481.6796395644
 20
-158.0516158669
 10
481.4504989799
 20
-161.0852705726
 10
481.0693846518
 20
-164.0116006684
 10
480.5374739976
 20
-166.8215655284
 10
479.8564103061
 20
-169.5064840263
 10
479.0282976604
 20
-172.0580613551
 10
478.055694438
 20
-174.4684146528
 10
476.9416054063
 20
-176.7300973562
 10
475.6894724403
 20
-178.8361222059
 10
474.3031638889
 20
-180.7799828331
 10
472.7869626239
 20
-182.5556738605
 10
471.1455528089
 20
-184.157709455
 10
469.3840054273
 20
-185.581140276
 10
467.5077626168
 20
-186.8215687658
 10
465.5226208558
 20
-187.8751627354
 10
463.434713056
 20
-188.7386672038
 10
461.2504896151
 20
-189.4094144538
 10
458.9766984893
 20
-189.8853322741
 10
456.6203643457
 20
-190.1649503604
 10
454.1887668604
 20
-190.2474048587
 10
451.6894182288
 20
-190.1324410335
 10
449.1300399569
 20
-189.8204140547
 10
446.5185390071
 20
-189.3122879008
 10
443.8629833697
 20
-188.6096323807
 10
441.1715771378
 20
-187.7146182834
 10
438.452635162
 20
-186.630010672
 10
435.7145573616
 20
-185.3591603415
 10
432.9658027746
 20
-183.9059934662
 10
430.2148634236
 20
-182.2749994707
 10
427.4702380811
 20
-180.4712171598
 10
424.7404060129
 20
-178.500219152
 10
422.0338007825
 20
-176.3680946631
 10
419.3587841961
 20
-174.0814306944
 10
416.7236204698
 20
-171.6472916824
 10
414.1364506979
 20
-169.0731976742
 10
411.6052677018
 20
-166.367101095
 10
409.1378913371
 20
-163.5373621795
 10
406.7419443346
 20
-160.5927231441
 10
404.4248287506
 20
-157.5422811784
 10
402.1937030993
 20
-154.3954603405
 10
400.0554602367
 20
-151.1619824419
 10
398.0167060663
 20
-147.8518370133
 10
396.0837391301
 20
-144.4752504424
 10
394.2625311506
 20
-141.0426543808
 10
392.5587085812
 20
-137.5646535162
 10
390.9775352241
 20
-134.0519928102
 10
389.5238959677
 20
-130.5155243029
 10
388.2022816961
 20
-126.9661735862
 10
387.0167754142
 20
-123.4149060505
 10
385.9710396339
 20
-119.8726930081
 10
385.0683050589
 20
-116.3504777981
 10
384.3113606043
 20
-112.8591419783
 10
383.7025447797
 20
-109.4094717076
 10
383.2437384654
 20
-106.0121244226
 10
382.936359101
 20
-102.6775959134
 10
382.7813563064
 20
-99.416187897
  0
LINE
  5
120
330
1F
100
AcDbEntity
  8
0
  6
Continuous
 62
     7
370
    25
100
AcDbLine
 10
367.5779987577
 20
-87.3733131541
 30
0.0
 11
382.7813563064
 21
-96.1500246495
 31
0.0
  0
LINE
  5
121
330
1F
100
AcDbEntity
  8
0
  6
Continuous
 62
     7
370
    25
100
AcDbLine
 10
367.5779987577
 20
-81.6575274709
 30
0.0
 11
367.5779987577
 21
-87.3733131541
 31
0.0
  0
LINE
  5
122
330
1F
100
AcDbEntity
  8
0
  6
Continuous
 62
     7
370
    25
100
AcDbLine
 10
378.1846004755
 20
-87.7805883096
 30
0.0
 11
367.5779987577
 21
-81.6575274709
 31
0.0
  0
LWPOLYLINE
  5
123
330
1F
100
AcDbEntity
  8
0
  6
Continuous
 62
     7
370
    25
100
AcDbPolyline
 90
      116
 70
   128
 43
0.0
 10
378.1846004755
 20
-102.4783229235
 10
378.5939688462
 20
-105.9873904892
 10
379.1517744912
 20
-109.5527695258
 10
379.8564745111
 20
-113.1645981391
 10
380.7061196949
 20
-116.8128859549
 10
381.6983599105
 20
-120.4875417519
 10
382.830450606
 20
-124.1784013749
 10
384.099260401
 20
-127.8752558484
 10
385.5012797477
 20
-131.5678796152
 10
387.0326306386
 20
-135.2460588203
 10
388.6890773333
 20
-138.8996195625
 10
390.4660380743
 20
-142.5184560357
 10
392.3585977605
 20
-146.0925584818
 10
394.3615215422
 20
-149.6120408774
 10
396.469269301
 20
-153.0671682793
 10
398.6760109735
 20
-156.4483837511
 10
400.9756426778
 20
-159.746334798
 10
403.3618035968
 20
-162.9518992358
 10
405.827893572
 20
-166.0562104233
 10
408.3670913601
 20
-169.0506817872
 10
410.9723735002
 20
-171.9270305728
 10
413.6365337413
 20
-174.6773007546
 10
416.3522029744
 20
-177.2938850422
 10
419.1118696162
 20
-179.7695459226
 10
421.9079003855
 20
-182.0974356791
 10
424.7325614175
 20
-184.2711153323
 10
427.5780396557
 20
-186.2845724503
 10
430.4364644628
 20
-188.1322377792
 10
433.2999293912
 20
-189.809000648
 10
436.1605140521
 20
-191.3102231042
 10
439.0103060235
 20
-192.6317527431
 10
441.8414227366
 20
-193.7699341931
 10
444.646033278
 20
-194.7216192265
 10
447.4163800513
 20
-195.4841754677
 10
450.1448002341
 20
-196.0554936741
 10
452.8237469733
 20
-196.4339935707
 10
455.4458102606
 20
-196.6186282208
 10
458.0037374279
 20
-196.6088869221
 10
460.4904532087
 20
-196.4047966193
 10
462.8990793082
 20
-196.0069218292
 10
465.2229534291
 20
-195.4163630798
 10
467.4556476992
 20
-194.6347538657
 10
469.5909864513
 20
-193.6642561304
 10
471.623063305
 20
-192.5075542856
 10
473.546257504
 20
-191.1678477868
 10
475.3552494631
 20
-189.648842283
 10
477.0450354823
 20
-187.9547393673
 10
478.610941587
 20
-186.0902249547
 10
480.0486364565
 20
-184.0604563213
 10
481.3541434043
 20
-181.8710478388
 10
482.5238513778
 20
-179.5280554453
 10
483.5545249465
 20
-177.0379598943
 10
484.4433132512
 20
-174.4076488291
 10
485.1877578895
 20
-171.6443977312
 10
485.7857997159
 20
-168.7558497962
 10
486.2357845374
 20
-165.7499947929
 10
486.5364676889
 20
-162.6351469633
 10
486.6870174763
 20
-159.419922025
 10
486.6870174763
 20
-156.1132133404
 10
486.5364676889
 20
-152.7241673176
 10
486.2357845374
 20
-149.2621581107
 10
485.7857997159
 20
-145.7367616912
 10
485.1877578895
 20
-142.1577293608
 10
484.4433132512
 20
-138.5349607789
 10
483.5545249465
 20
-134.8784765798
 10
482.5238513778
 20
-131.1983906561
 10
481.3541434043
 20
-127.504882183
 10
480.0486364565
 20
-123.8081674624
 10
478.610941587
 20
-120.1184716652
 10
477.0450354823
 20
-116.4460005476
 10
475.3552494631
 20
-112.800912222
 10
473.546257504
 20
-109.1932890598
 10
471.623063305
 20
-105.6331098028
 10
469.5909864513
 20
-102.1302219627
 10
467.4556476992
 20
-98.694314582
 10
465.2229534291
 20
-95.334891434
 10
462.8990793082
 20
-92.0612447357
 10
460.4904532087
 20
-88.8824294451
 10
458.0037374279
 20
-85.8072382149
 10
455.4458102606
 20
-82.844177072
 10
452.8237469733
 20
-80.00144189
 10
450.1448002341
 20
-77.2868957188
 10
447.4163800513
 20
-74.7080470354
 10
444.646033278
 20
-72.2720289756
 10
441.8414227365
 20
-69.9855796035
 10
439.0103060235
 20
-67.8550232737
 10
436.160514052
 20
-65.8862531384
 10
433.2999293912
 20
-64.0847148464
 10
430.4364644628
 20
-62.4553914808
 10
427.5780396557
 20
-61.0027897756
 10
424.7325614175
 20
-59.7309276498
 10
421.9079003855
 20
-58.6433230938
 10
419.1118696162
 20
-57.7429844389
 10
416.3522029744
 20
-57.0324020358
 10
413.6365337412
 20
-56.5135413666
 10
410.9723735002
 20
-56.187837608
 10
408.3670913601
 20
-56.0561916616
 10
405.827893572
 20
-56.1189676623
 10
403.3618035968
 20
-56.3759919706
 10
400.9756426778
 20
-56.8265536533
 10
398.6760109735
 20
-57.4694064497
 10
396.469269301
 20
-58.3027722189
 10
394.3615215422
 20
-59.3243458582
 10
392.3585977605
 20
-60.531301679
 10
390.4660380743
 20
-61.9203012226
 10
388.6890773333
 20
-63.4875024945
 10
387.0326306386
 20
-65.2285705915
 10
385.5012797477
 20
-67.1386896922
 10
384.099260401
 20
-69.2125763771
 10
382.830450606
 20
-71.4444942434
 10
381.6983599105
 20
-73.8282697713
 10
380.7061196949
 20
-76.3573094005
 10
379.8564745111
 20
-79.0246177679
 10
379.1517744912
 20
-81.8228170568
 10
378.5939688462
 20
-84.7441674043
 10
378.1846004755
 20
-87.7805883096
  0
LINE
  5
124
330
1F
100
AcDbEntity
  8
0
  6
Continuous
 62
     7
370
    25
100
AcDbLine
 10
378.1846004755
 20
-102.4783229235
 30
0.0
 11
279.1896511093
 21
-159.6268907511
 31
0.0
  0
LWPOLYLINE
  5
125
330
1F
100
AcDbEntity
  8
0
  6
Continuous
 62
     7
370
    25
100
AcDbPolyline
 90
       44
 70
   128
 43
0.0
 10
279.1896511093
 20
-159.6268907511
 10
279.5990194801
 20
-163.1359583168
 10
280.1568251251
 20
-166.7013373534
 10
280.861525145
 20
-170.3131659667
 10
281.7111703287
 20
-173.9614537825
 10
282.7034105443
 20
-177.6361095795
 10
283.8355012399
 20
-181.3269692024
 10
285.1043110349
 20
-185.0238236759
 10
286.5063303815
 20
-188.7164474428
 10
288.0376812725
 20
-192.3946266479
 10
289.6941279672
 20
-196.0481873901
 10
291.4710887082
 20
-199.6670238633
 10
293.3636483944
 20
-203.2411263093
 10
295.3665721761
 20
-206.760608705
 10
297.4743199348
 20
-210.2157361069
 10
299.6810616074
 20
-213.5969515787
 10
301.9806933117
 20
-216.8949026256
 10
304.3668542307
 20
-220.1004670634
 10
306.8329442059
 20
-223.2047782509
 10
309.372141994
 20
-226.1992496148
 10
311.9774241341
 20
-229.0755984004
 10
314.6415843751
 20
-231.8258685822
 10
317.3572536083
 20
-234.4424528698
 10
320.1169202501
 20
-236.9181137502
 10
322.9129510194
 20
-239.2460035067
 10
325.7376120514
 20
-241.4196831599
 10
328.5830902896
 20
-243.4331402779
 10
331.4415150967
 20
-245.2808056068
 10
334.3049800251
 20
-246.9575684756
 10
337.1655646859
 20
-248.4587909318
 10
340.0153566574
 20
-249.7803205707
 10
342.8464733704
 20
-250.9185020207
 10
345.6510839119
 20
-251.8701870541
 10
348.4214306852
 20
-252.6327432953
 10
351.1498508679
 20
-253.2040615017
 10
353.8287976072
 20
-253.5825613983
 10
356.4508608945
 20
-253.7671960484
 10
359.0087880618
 20
-253.7574547497
 10
361.4955038426
 20
-253.5533644469
 10
363.9041299421
 20
-253.1554896568
 10
366.228004063
 20
-252.5649309074
 10
368.4606983331
 20
-251.7833216933
 10
370.5960370852
 20
-250.812823958
 10
371.7605456542
 20
-250.1800550637
  0
ARC
  5
126
330
1F
100
AcDbEntity
  8
0
  6
Continuous
 62
     7
370
    25
100
AcDbCircle
 10
309.8046211675
 20
-141.8067157317
 30
0.0
 40
29.17267977070019
100
AcDbArc
 50
121.0292805757
 51
157.2917961597
  0
LINE
  5
127
330
1F
100
AcDbEntity
  8
0
  6
Continuous
 62
     7
370
    25
100
AcDbLine
 10
307.5618363707
 20
-144.1660210065
 30
0.0
 11
349.9882432419
 21
-119.6737776518
 31
0.0
  0
LWPOLYLINE
  5
128
330
1F
100
AcDbEntity
  8
0
  6
Continuous
 62
     7
370
    25
100
AcDbPolyline
 90
       54
 70
   128
 43
0.0
 10
414.8883236756
 20
-210.5719373642
 10
414.4738788248
 20
-212.4782707224
 10
413.7169891667
 20
-215.2796119685
 10
412.8116276948
 20
-217.9440234301
 10
411.7603710456
 20
-220.4639222579
 10
410.5662110695
 20
-222.8321368819
 10
409.2325463165
 20
-225.0419274214
 10
407.7631723637
 20
-227.0870048669
 10
406.1622710131
 20
-228.9615489785
 10
404.4343983906
 20
-230.6602248497
 10
402.5844719792
 20
-232.1781980907
 10
400.617756624
 20
-233.5111485871
 10
398.5398495483
 20
-234.6552827946
 10
396.3566644246
 20
-235.6073445353
 10
394.0744145441
 20
-236.364624265
 10
391.6995951337
 20
-236.9249667843
 10
389.2389648711
 20
-237.286777372
 10
386.6995266494
 20
-237.4490263242
 10
384.0885076472
 20
-237.4112518843
 10
381.4133387605
 20
-237.1735615575
 10
378.681633454
 20
-236.7366318046
 10
375.9011660938
 20
-236.1017061169
 10
373.0798498215
 20
-235.2705914773
 10
370.225714034
 20
-234.2456532176
 10
367.3468815312
 20
-233.0298082869
 10
364.4515453999
 20
-231.6265169499
 10
361.5479456952
 20
-230.0397729392
 10
358.6443459905
 20
-228.2740920892
 10
355.7490098591
 20
-226.3344994842
 10
352.8701773564
 20
-224.226515157
 10
350.0160415689
 20
-221.9561383792
 10
347.1947252966
 20
-219.529830587
 10
344.4142579364
 20
-216.9544969929
 10
341.6825526299
 20
-214.2374669329
 10
339.0073837432
 20
-211.3864730075
 10
336.396364741
 20
-208.4096290755
 10
333.8569265193
 20
-205.3154071612
 10
331.3962962566
 20
-202.1126133443
 10
329.0214768463
 20
-198.810362697
 10
326.7392269657
 20
-195.4180533434
 10
324.5560418421
 20
-191.9453397125
 10
322.4781347664
 20
-188.4021050617
 10
320.5114194111
 20
-184.7984333498
 10
318.6614929998
 20
-181.1445805377
 10
316.9336203773
 20
-177.4509454005
 10
315.3327190267
 20
-173.728039933
 10
313.8633450739
 20
-169.9864594326
 10
312.5296803209
 20
-166.2368523452
 10
311.3355203448
 20
-162.4898899604
 10
310.2842636955
 20
-158.7562360408
 10
309.3789022236
 20
-155.0465164737
 10
308.6220125656
 20
-151.3712890296
 10
308.0157488107
 20
-147.7410133154
 10
307.5618363707
 20
-144.1660210065
  0
LINE
  5
129
330
1F
100
AcDbEntity
  8
0
  6
Continuous
 62
     7
370
    25
100
AcDbLine
 10
451.6207417125
 20
-185.6646552816
 30
0.0
 11
445.6606374497
 21
-189.1053502352
 31
0.0
  0
LWPOLYLINE
  5
12A
330
1F
100
AcDbEntity
  8
0
  6
Continuous
 62
     7
370
    25
100
AcDbPolyline
 90
       43
 70
   128
 43
0.0
 10
349.9882432419
 20
-119.6737776518
 10
350.4421556819
 20
-123.2487699607
 10
351.0484194368
 20
-126.8790456749
 10
351.8053090948
 20
-130.554273119
 10
352.7106705667
 20
-134.2639926861
 10
353.761927216
 20
-137.9976466057
 10
354.9560871921
 20
-141.7446089905
 10
356.2897519451
 20
-145.4942160779
 10
357.7591258979
 20
-149.2357965784
 10
359.3600272485
 20
-152.9587020458
 10
361.0878998709
 20
-156.652337183
 10
362.9378262823
 20
-160.3061899951
 10
364.9045416376
 20
-163.9098617071
 10
366.9824487133
 20
-167.4530963578
 10
369.1656338369
 20
-170.9258099887
 10
371.4478837175
 20
-174.3181193423
 10
373.8227031278
 20
-177.6203699896
 10
376.2833333905
 20
-180.8231638066
 10
378.8227716122
 20
-183.9173857208
 10
381.4337906144
 20
-186.8942296528
 10
384.1089595011
 20
-189.7452235782
 10
386.8406648076
 20
-192.4622536383
 10
389.6211321678
 20
-195.0375872324
 10
392.44244844
 20
-197.4638950245
 10
395.2965842276
 20
-199.7342718024
 10
398.1754167303
 20
-201.8422561296
 10
401.0707528617
 20
-203.7818487345
 10
403.9743525664
 20
-205.5475295845
 10
406.8779522711
 20
-207.1342735952
 10
409.7732884024
 20
-208.5375649322
 10
412.6521209051
 20
-209.7534098629
 10
415.5062566927
 20
-210.7783481227
 10
418.3275729649
 20
-211.6094627623
 10
421.1080403252
 20
-212.24438845
 10
423.8397456317
 20
-212.6813182029
 10
426.5149145184
 20
-212.9190085297
 10
429.1259335206
 20
-212.9567829695
 10
431.6653717423
 20
-212.7945340173
 10
434.1260020049
 20
-212.4327234296
 10
436.5008214153
 20
-211.8723809103
 10
438.7830712958
 20
-211.1151011806
 10
440.9662564195
 20
-210.1630394399
 10
442.4712237729
 20
-209.3596494726
  0
SPLINE
  5
12B
330
1F
100
AcDbEntity
  8
0
  6
Continuous
 62
     7
370
    25
100
AcDbSpline
210
0.0
220
0.0
230
1.0
 70
     8
 71
     3
 72
    22
 73
    18
 74
     0
 42
0.00000001
 43
0.00000001
 40
0.0
 40
0.0
 40
0.0
 40
0.0
 40
0.0700064336225632
 40
0.1400276603222573
 40
0.2098832190623318
 40
0.2797573691471459
 40
0.3526652880252231
 40
0.4255696835099141
 40
0.5008453882745236
 40
0.5760964344399889
 40
0.6482148006308197
 40
0.7203262086108599
 40
0.789004845647081
 40
0.8576979760005772
 40
0.9273756861083696
 40
0.9970680366197753
 40
1.0
 40
1.0
 40
1.0
 40
1.0
 10
400.9337934072796
 20
-112.2446398098293
 30
0.0
 10
401.8691578636839
 20
-111.6280320213071
 30
0.0
 10
403.7400844285917
 20
-110.3946861487156
 30
0.0
 10
405.8669640168058
 20
-107.9964386017994
 30
0.0
 10
407.4066344882111
 20
-105.3027688663463
 30
0.0
 10
408.3255214830749
 20
-102.3540677547463
 30
0.0
 10
408.5678590669976
 20
-99.26309622953353
 30
0.0
 10
408.1116219842554
 20
-96.11858916704576
 30
0.0
 10
406.9057176712553
 20
-93.10426254817398
 30
0.0
 10
405.0005121033089
 20
-90.38630708963902
 30
0.0
 10
402.4593236360257
 20
-88.12452237473417
 30
0.0
 10
399.4612662236641
 20
-86.38640241043365
 30
0.0
 10
396.0694208522132
 20
-85.19972155748233
 30
0.0
 10
392.4044837891001
 20
-84.50321707513675
 30
0.0
 10
388.4945958374715
 20
-84.3548029272635
 30
0.0
 10
385.7375052858162
 20
-84.43991444570794
 30
0.0
 10
384.3227727950406
 20
-84.67703704894294
 30
0.0
 10
384.2656577101125
 20
-84.68661007968227
 30
0.0
  0
SPLINE
  5
12C
330
1F
100
AcDbEntity
  8
0
  6
Continuous
 62
     7
370
    25
100
AcDbSpline
210
0.0
220
0.0
230
1.0
 70
     8
 71
     3
 72
    13
 73
     9
 74
     0
 42
0.00000001
 43
0.00000001
 40
0.0
 40
0.0
 40
0.0
 40
0.0
 40
0.01322788955747
 40
0.2567206372079285
 40
0.5001427853040812
 40
0.6665664563326795
 40
0.8336277991184419
 40
1.0
 40
1.0
 40
1.0
 40
1.0
 10
384.7522872161754
 20
-114.811915308739
 30
0.0
 10
384.8316841571967
 20
-114.8241462459738
 30
0.0
 10
386.3725825146246
 20
-115.0615185030466
 30
0.0
 10
389.3410364245333
 20
-115.1148364261513
 30
0.0
 10
393.081332315368
 20
-114.8804564314118
 30
0.0
 10
396.1742209864214
 20
-114.2278525997256
 30
0.0
 10
398.6971461913408
 20
-113.4114860704409
 30
0.0
 10
400.1892723128948
 20
-112.6330522732427
 30
0.0
 10
400.9337934072796
 20
-112.2446398098293
 30
0.0
  0
LINE
  5
12D
330
1F
100
AcDbEntity
  8
0
  6
Continuous
 62
     7
370
    25
100
AcDbLine
 10
382.7813563064
 20
-96.1500246495
 30
0.0
 11
379.9524694454
 21
-97.7831062732
 31
0.0
  0
ARC
  5
12E
330
1F
100
AcDbEntity
  8
0
  6
Continuous
 62
     7
370
    25
100
AcDbCircle
 10
281.2933125455
 20
-209.0321078675
 30
0.0
 40
97.84773104020142
100
AcDbArc
 50
39.5188026066
 51
52.880278491
  0
LWPOLYLINE
  5
12F
330
1F
100
AcDbEntity
  8
0
  6
Continuous
 62
     7
370
    25
100
AcDbPolyline
 90
       17
 70
   128
 43
0.0
 10
376.8247729057
 20
-181.5002075405
 10
377.9466560402
 20
-184.6997925624
 10
379.0607450718
 20
-188.2477750821
 10
380.0333482943
 20
-191.7810721579
 10
380.86146094
 20
-195.2887679959
 10
381.5425246315
 20
-198.7600258943
 10
382.0744352857
 20
-202.1841217234
 10
382.4555496137
 20
-205.5504770562
 10
382.6846901983
 20
-208.8486918495
 10
382.7611491308
 20
-212.0685765742
 10
382.6846901983
 20
-215.2001836945
 10
382.4555496137
 20
-218.2338384002
 10
382.0744352857
 20
-221.160168496
 10
381.5425246315
 20
-223.970133356
 10
380.86146094
 20
-226.6550518539
 10
380.0333482943
 20
-229.2066291827
 10
379.4193369583
 20
-230.7852753113
  0
LINE
  5
130
330
1F
100
AcDbEntity
  8
0
  6
Continuous
 62
     7
370
    25
100
AcDbLine
 10
350.7200523425
 20
-125.0199351476
 30
0.0
 11
312.5581508395
 21
-147.0503319551
 31
0.0
  0
ARC
  5
131
330
1F
100
AcDbEntity
  8
0
  6
Continuous
 62
     7
370
    25
100
AcDbCircle
 10
410.8660172797
 20
-173.9108518023
 30
0.0
 40
42.41925287326048
100
AcDbArc
 50
337.7616358168
 51
352.9455038117
  0
LINE
  5
132
330
1F
100
AcDbEntity
  8
0
  6
Continuous
 62
     7
370
    25
100
AcDbLine
 10
439.3217293129
 20
-186.9961021135
 30
0.0
 11
452.964147422
 21
-179.1205017759
 31
0.0
  0
LWPOLYLINE
  5
133
330
1F
100
AcDbEntity
  8
0
  6
Continuous
 62
     7
370
    25
100
AcDbPolyline
 90
       51
 70
   128
 43
0.0
 10
312.5581508395
 20
-147.0503319551
 10
313.0305077485
 20
-150.4753610796
 10
313.6548582014
 20
-153.9526783977
 10
314.4292462575
 20
-157.4713903047
 10
315.3512459438
 20
-161.0204735168
 10
316.4179688557
 20
-164.588809604
 10
317.6260732049
 20
-168.1652198217
 10
318.9717742893
 20
-171.7385001309
 10
320.4508563487
 20
-175.2974562981
 10
322.0586857723
 20
-178.8309389635
 10
323.7902256147
 20
-182.3278785702
 10
325.640051375
 20
-185.7773200415
 10
327.6023679911
 20
-189.1684571013
 10
329.6710279937
 20
-192.4906661272
 10
331.8395507651
 20
-195.733539432
 10
334.1011428416
 20
-198.886917868
 10
336.4487191953
 20
-201.9409226541
 10
338.8749254303
 20
-204.8859863226
 10
341.3721608219
 20
-207.7128826925
 10
343.9326021283
 20
-210.4127557728
 10
346.5482280983
 20
-212.977147506
 10
349.2108446007
 20
-215.3980242654
 10
351.9121102939
 20
-217.6678020223
 10
354.6435627577
 20
-219.7793701052
 10
357.3966450041
 20
-221.7261134757
 10
360.1627322839
 20
-223.5019334518
 10
362.9331591065
 20
-225.1012668137
 10
365.6992463863
 20
-226.519103232
 10
368.4523286326
 20
-227.7510009639
 10
371.1837810965
 20
-228.793100768
 10
373.8850467897
 20
-229.6421379946
 10
376.547663292
 20
-230.2954528128
 10
379.1632892621
 20
-230.7509985435
 10
381.7237305685
 20
-231.0073480705
 10
384.2209659601
 20
-231.0636983122
 10
386.6471721951
 20
-230.9198727366
 10
388.9947485488
 20
-230.5763219149
 10
391.2563406252
 20
-230.0341221098
 10
393.4248633967
 20
-229.2949719037
 10
395.4935233993
 20
-228.3611868777
 10
397.4558400154
 20
-227.2356923573
 10
399.3056657757
 20
-225.9220142478
 10
401.037205618
 20
-224.4242679891
 10
402.6450350417
 20
-222.7471456625
 10
404.1241171011
 20
-220.8959012914
 10
405.4698181854
 20
-218.8763343825
 10
406.6779225347
 20
-216.6947717563
 10
407.7446454466
 20
-214.3580477276
 10
408.6666451329
 20
-211.8734826944
 10
409.4410331889
 20
-209.2488602057
 10
409.6347870247
 20
-208.4745344705
  0
LINE
  5
134
330
1F
100
AcDbEntity
  8
0
  6
Continuous
 62
     7
370
    25
100
AcDbLine
 10
367.5779987577
 20
-96.3552620849
 30
0.0
 11
268.5830493915
 21
-153.5038299125
 31
0.0
  0
LINE
  5
135
330
1F
100
AcDbEntity
  8
0
  6
Continuous
 62
     7
370
    25
100
AcDbLine
 10
268.5830493915
 20
-153.5038299125
 30
0.0
 11
279.1896511093
 21
-159.6268907511
 31
0.0
  0
LINE
  5
136
330
1F
100
AcDbEntity
  8
0
  6
Continuous
 62
     7
370
    25
100
AcDbLine
 10
367.5779987577
 20
-90.6394764017
 30
0.0
 11
268.5830493915
 21
-147.7880442293
 31
0.0
  0
LINE
  5
137
330
1F
100
AcDbEntity
  8
0
  6
Continuous
 62
     7
370
    25
100
AcDbLine
 10
268.5830493915
 20
-147.7880442293
 30
0.0
 11
268.5830493915
 21
-153.5038299125
 31
0.0
  0
LINE
  5
138
330
1F
100
AcDbEntity
  8
0
  6
Continuous
 62
     7
370
    25
100
AcDbLine
 10
367.5779987577
 20
-87.3733131541
 30
0.0
 11
268.5830493915
 21
-144.5218809817
 31
0.0
  0
LINE
  5
139
330
1F
100
AcDbEntity
  8
0
  6
Continuous
 62
     7
370
    25
100
AcDbLine
 10
268.5830493915
 20
-144.5218809817
 30
0.0
 11
271.4119362526
 21
-146.1549626055
 31
0.0
  0
LINE
  5
13A
330
1F
100
AcDbEntity
  8
0
  6
Continuous
 62
     7
370
    25
100
AcDbLine
 10
367.5779987577
 20
-81.6575274709
 30
0.0
 11
268.5830493915
 21
-138.8060952985
 31
0.0
  0
LINE
  5
13B
330
1F
100
AcDbEntity
  8
0
  6
Continuous
 62
     7
370
    25
100
AcDbLine
 10
268.5830493915
 20
-138.8060952985
 30
0.0
 11
268.5830493915
 21
-144.5218809817
 31
0.0
  0
LINE
  5
13C
330
1F
100
AcDbEntity
  8
0
  6
Continuous
 62
     7
370
    25
100
AcDbLine
 10
312.5581508395
 20
-147.0503319551
 30
0.0
 11
307.5618363707
 21
-144.1660210065
 31
0.0
  0
LWPOLYLINE
  5
13D
330
1F
100
AcDbEntity
  8
0
  6
Continuous
 62
     7
370
    25
100
AcDbPolyline
 90
       15
 70
   128
 43
0.0
 10
430.1373034703
 20
-52.4485823071
 10
429.1739474542
 20
-51.9842888162
 10
428.0824655367
 20
-51.6267581998
 10
426.8979388449
 20
-51.3874817859
 10
425.6584390413
 20
-51.2741501155
 10
424.4038046693
 20
-51.2904057616
 10
423.17436071
 20
-51.4357262545
 10
422.0096225038
 20
-51.7054408739
 10
420.9470256951
 20
-52.0908807699
 10
420.0207230196
 20
-52.5796575874
 10
419.2604866074
 20
-53.156061637
 10
418.6907510823
 20
-53.8015668185
 10
418.329828213
 20
-54.4954260641
 10
418.1893183574
 20
-55.2153381669
 10
418.187556002
 20
-55.3060106985
  0
ARC
  5
13E
330
1F
100
AcDbEntity
  8
0
  6
Continuous
 62
     7
370
    25
100
AcDbCircle
 10
428.7032611518
 20
-55.6417909801
 30
0.0
 40
3.50043697284022
100
AcDbArc
 50
5.5045757886
 51
65.815565169
  0
LWPOLYLINE
  5
13F
330
1F
100
AcDbEntity
  8
0
  6
Continuous
 62
     7
370
    25
100
AcDbPolyline
 90
       30
 70
   128
 43
0.0
 10
360.4872855234
 20
-23.663163262
 10
362.4027231382
 20
-22.6452407636
 10
364.4572294456
 20
-21.7221078079
 10
366.6367700845
 20
-20.9000703291
 10
368.9264565821
 20
-20.1847436766
 10
371.310648058
 20
-19.5810142569
 10
373.7730580669
 20
-19.0930061539
 10
376.2968658516
 20
-18.724052958
 10
378.8648312458
 20
-18.4766749936
 10
381.4594124419
 20
-18.3525621029
 10
384.0628858196
 20
-18.3525621029
 10
386.6574670158
 20
-18.4766749936
 10
389.2254324099
 20
-18.724052958
 10
391.7492401946
 20
-19.0930061539
 10
394.2116502035
 20
-19.5810142569
 10
396.5958416795
 20
-20.1847436766
 10
398.8855281771
 20
-20.9000703291
 10
401.0650688159
 20
-21.7221078079
 10
403.1195751234
 20
-22.6452407636
 10
405.0350127382
 20
-23.663163262
 10
406.7982972791
 20
-24.7689218603
 10
408.3973837248
 20
-25.954963106
 10
409.8213486934
 20
-27.2131851348
 10
411.0604650604
 20
-28.5349930144
 10
412.1062684044
 20
-29.9113574567
 10
412.9516148282
 20
-31.3328764969
 10
413.5907297586
 20
-32.7898397187
 10
414.0192473925
 20
-34.2722945858
 10
414.23424052
 20
-35.7701144284
 10
414.2611491308
 20
-36.5215910232
  0
LWPOLYLINE
  5
140
330
1F
100
AcDbEntity
  8
0
  6
Continuous
 62
     7
370
    25
100
AcDbPolyline
 90
       11
 70
   128
 43
0.0
 10
351.2611491308
 20
-36.5215910232
 10
351.2880577416
 20
-35.7701144284
 10
351.5030508691
 20
-34.2722945858
 10
351.931568503
 20
-32.7898397187
 10
352.5706834334
 20
-31.3328764969
 10
353.4160298572
 20
-29.9113574567
 10
354.4618332012
 20
-28.5349930144
 10
355.7009495681
 20
-27.2131851348
 10
357.1249145368
 20
-25.954963106
 10
358.7240009825
 20
-24.7689218603
 10
360.4872855234
 20
-23.663163262
  0
ENDSEC
  0
SECTION
  2
OBJECTS
  0
DICTIONARY
  5
C
330
0
100
AcDbDictionary
281
     1
  3
ACAD_GROUP
350
D
  3
ACAD_LAYOUT
350
1A
  3
ACAD_MLINESTYLE
350
17
  3
ACAD_PLOTSETTINGS
350
19
  3
ACAD_PLOTSTYLENAME
350
E
  3
ACAD_SCALELIST
350
47
  3
DWGPROPS
350
141
  0
DICTIONARY
  5
D
102
{ACAD_REACTORS
330
C
102
}
330
C
100
AcDbDictionary
281
     1
  0
DICTIONARY
  5
1A
102
{ACAD_REACTORS
330
C
102
}
330
C
100
AcDbDictionary
281
     1
  3
Layout1
350
1E
  3
Layout2
350
26
  3
Model
350
22
  0
DICTIONARY
  5
17
102
{ACAD_REACTORS
330
C
102
}
330
C
100
AcDbDictionary
281
     1
  3
Standard
350
18
  0
DICTIONARY
  5
19
102
{ACAD_REACTORS
330
C
102
}
330
C
100
AcDbDictionary
281
     1
  0
ACDBDICTIONARYWDFLT
  5
E
102
{ACAD_REACTORS
330
C
102
}
330
C
100
AcDbDictionary
281
     1
  3
Normal
350
F
100
AcDbDictionaryWithDefault
340
F
  0
DICTIONARY
  5
47
102
{ACAD_REACTORS
330
C
102
}
330
C
100
AcDbDictionary
281
     1
  3
A0
350
48
  3
A1
350
49
  3
A2
350
4A
  3
A3
350
4B
  3
A4
350
4C
  3
A5
350
4D
  3
A6
350
4E
  3
A7
350
4F
  3
A8
350
50
  3
A9
350
51
  3
B0
350
52
  3
B1
350
53
  3
B2
350
54
  3
B3
350
55
  3
B4
350
56
  3
B5
350
57
  3
B6
350
58
  3
B7
350
59
  3
B8
350
5A
  3
B9
350
5B
  3
C0
350
5C
  3
C1
350
5D
  3
C2
350
5E
  3
C3
350
5F
  3
C4
350
60
  3
C5
350
61
  3
C6
350
62
  3
C7
350
63
  3
C8
350
64
  3
C9
350
65
  3
D0
350
66
  3
D1
350
67
  3
D2
350
68
  0
XRECORD
  5
141
102
{ACAD_REACTORS
330
C
102
}
330
C
100
AcDbXrecord
280
     1
  1
DWGPROPS COOKIE
  2

  3

  4

  6

  7

  8
b.kav
  9

300
=
301
=
302
=
303
=
304
=
305
=
306
=
307
=
308
=
309
=
 40
0.0
 41
2459741.489499352
 42
2459741.489499526
  1

 90
        0
  0
LAYOUT
  5
1E
102
{ACAD_REACTORS
330
1A
102
}
330
1A
100
AcDbPlotSettings
  1

  2
none_device
  4

  6

 40
0.0
 41
0.0
 42
0.0
 43
0.0
 44
0.0
 45
0.0
 46
0.0
 47
0.0
 48
0.0
 49
0.0
140
0.0
141
0.0
142
1.0
143
1.0
 70
   688
 72
     1
 73
     0
 74
     5
  7

 75
    16
147
1.0
148
0.0
149
0.0
100
AcDbLayout
  1
Layout1
 70
     1
 71
     1
 10
0.0
 20
0.0
 11
420.0
 21
297.0
 12
0.0
 22
0.0
 32
0.0
 14
1.0000000000E+20
 24
1.0000000000E+20
 34
1.0000000000E+20
 15
-1.0000000000E+20
 25
-1.0000000000E+20
 35
-1.0000000000E+20
146
0.0
 13
0.0
 23
0.0
 33
0.0
 16
1.0
 26
0.0
 36
0.0
 17
0.0
 27
1.0
 37
0.0
 76
     0
330
1B
  0
LAYOUT
  5
26
102
{ACAD_REACTORS
330
1A
102
}
330
1A
100
AcDbPlotSettings
  1

  2
none_device
  4

  6

 40
0.0
 41
0.0
 42
0.0
 43
0.0
 44
0.0
 45
0.0
 46
0.0
 47
0.0
 48
0.0
 49
0.0
140
0.0
141
0.0
142
1.0
143
1.0
 70
   688
 72
     1
 73
     0
 74
     5
  7

 75
    16
147
1.0
148
0.0
149
0.0
100
AcDbLayout
  1
Layout2
 70
     1
 71
     2
 10
0.0
 20
0.0
 11
0.0
 21
0.0
 12
0.0
 22
0.0
 32
0.0
 14
0.0
 24
0.0
 34
0.0
 15
0.0
 25
0.0
 35
0.0
146
0.0
 13
0.0
 23
0.0
 33
0.0
 16
1.0
 26
0.0
 36
0.0
 17
0.0
 27
1.0
 37
0.0
 76
     0
330
23
  0
LAYOUT
  5
22
102
{ACAD_REACTORS
330
1A
102
}
330
1A
100
AcDbPlotSettings
  1

  2
none_device
  4
Letter_(8.50_x_11.00_Inches)
  6

 40
6.35
 41
6.35
 42
6.35000508
 43
6.35000508
 44
215.9
 45
279.4
 46
0.0
 47
0.0
 48
0.0
 49
0.0
140
0.0
141
0.0
142
1.0
143
1.0
 70
  1712
 72
     1
 73
     0
 74
     0
  7

 75
     0
147
1.0
148
0.0
149
0.0
100
AcDbLayout
  1
Model
 70
     1
 71
     0
 10
0.0
 20
0.0
 11
279.4
 21
215.9
 12
0.0
 22
0.0
 32
0.0
 14
0.0
 24
0.0
 34
0.0
 15
279.4
 25
215.9
 35
0.0
146
0.0
 13
0.0
 23
0.0
 33
0.0
 16
1.0
 26
0.0
 36
0.0
 17
0.0
 27
1.0
 37
0.0
 76
     0
330
1F
331
29
  0
MLINESTYLE
  5
18
102
{ACAD_REACTORS
330
17
102
}
330
17
100
AcDbMlineStyle
  2
Standard
 70
     0
  3

 62
   256
 51
90.0
 52
90.0
 71
     2
 49
0.5
 62
   256
  6
BYLAYER
 49
-0.5
 62
   256
  6
BYLAYER
  0
ACDBPLACEHOLDER
  5
F
102
{ACAD_REACTORS
330
E
102
}
330
E
  0
SCALE
  5
48
102
{ACAD_REACTORS
330
47
102
}
330
47
100
AcDbScale
 70
     0
300
1:1
140
1.0
141
1.0
290
     1
  0
SCALE
  5
49
102
{ACAD_REACTORS
330
47
102
}
330
47
100
AcDbScale
 70
     0
300
1:2
140
1.0
141
2.0
290
     0
  0
SCALE
  5
4A
102
{ACAD_REACTORS
330
47
102
}
330
47
100
AcDbScale
 70
     0
300
1:4
140
1.0
141
4.0
290
     0
  0
SCALE
  5
4B
102
{ACAD_REACTORS
330
47
102
}
330
47
100
AcDbScale
 70
     0
300
1:5
140
1.0
141
5.0
290
     0
  0
SCALE
  5
4C
102
{ACAD_REACTORS
330
47
102
}
330
47
100
AcDbScale
 70
     0
300
1:8
140
1.0
141
8.0
290
     0
  0
SCALE
  5
4D
102
{ACAD_REACTORS
330
47
102
}
330
47
100
AcDbScale
 70
     0
300
1:10
140
1.0
141
10.0
290
     0
  0
SCALE
  5
4E
102
{ACAD_REACTORS
330
47
102
}
330
47
100
AcDbScale
 70
     0
300
1:16
140
1.0
141
16.0
290
     0
  0
SCALE
  5
4F
102
{ACAD_REACTORS
330
47
102
}
330
47
100
AcDbScale
 70
     0
300
1:20
140
1.0
141
20.0
290
     0
  0
SCALE
  5
50
102
{ACAD_REACTORS
330
47
102
}
330
47
100
AcDbScale
 70
     0
300
1:30
140
1.0
141
30.0
290
     0
  0
SCALE
  5
51
102
{ACAD_REACTORS
330
47
102
}
330
47
100
AcDbScale
 70
     0
300
1:40
140
1.0
141
40.0
290
     0
  0
SCALE
  5
52
102
{ACAD_REACTORS
330
47
102
}
330
47
100
AcDbScale
 70
     0
300
1:50
140
1.0
141
50.0
290
     0
  0
SCALE
  5
53
102
{ACAD_REACTORS
330
47
102
}
330
47
100
AcDbScale
 70
     0
300
1:100
140
1.0
141
100.0
290
     0
  0
SCALE
  5
54
102
{ACAD_REACTORS
330
47
102
}
330
47
100
AcDbScale
 70
     0
300
2:1
140
2.0
141
1.0
290
     0
  0
SCALE
  5
55
102
{ACAD_REACTORS
330
47
102
}
330
47
100
AcDbScale
 70
     0
300
4:1
140
4.0
141
1.0
290
     0
  0
SCALE
  5
56
102
{ACAD_REACTORS
330
47
102
}
330
47
100
AcDbScale
 70
     0
300
8:1
140
8.0
141
1.0
290
     0
  0
SCALE
  5
57
102
{ACAD_REACTORS
330
47
102
}
330
47
100
AcDbScale
 70
     0
300
10:1
140
10.0
141
1.0
290
     0
  0
SCALE
  5
58
102
{ACAD_REACTORS
330
47
102
}
330
47
100
AcDbScale
 70
     0
300
100:1
140
100.0
141
1.0
290
     0
  0
SCALE
  5
59
102
{ACAD_REACTORS
330
47
102
}
330
47
100
AcDbScale
 70
     0
300
1/128" = 1'-0"
140
0.0078125
141
12.0
290
     0
  0
SCALE
  5
5A
102
{ACAD_REACTORS
330
47
102
}
330
47
100
AcDbScale
 70
     0
300
1/64" = 1'-0"
140
0.015625
141
12.0
290
     0
  0
SCALE
  5
5B
102
{ACAD_REACTORS
330
47
102
}
330
47
100
AcDbScale
 70
     0
300
1/32" = 1'-0"
140
0.03125
141
12.0
290
     0
  0
SCALE
  5
5C
102
{ACAD_REACTORS
330
47
102
}
330
47
100
AcDbScale
 70
     0
300
1/16" = 1'-0"
140
0.0625
141
12.0
290
     0
  0
SCALE
  5
5D
102
{ACAD_REACTORS
330
47
102
}
330
47
100
AcDbScale
 70
     0
300
3/32" = 1'-0"
140
0.09375
141
12.0
290
     0
  0
SCALE
  5
5E
102
{ACAD_REACTORS
330
47
102
}
330
47
100
AcDbScale
 70
     0
300
1/8" = 1'-0"
140
0.125
141
12.0
290
     0
  0
SCALE
  5
5F
102
{ACAD_REACTORS
330
47
102
}
330
47
100
AcDbScale
 70
     0
300
3/16" = 1'-0"
140
0.1875
141
12.0
290
     0
  0
SCALE
  5
60
102
{ACAD_REACTORS
330
47
102
}
330
47
100
AcDbScale
 70
     0
300
1/4" = 1'-0"
140
0.25
141
12.0
290
     0
  0
SCALE
  5
61
102
{ACAD_REACTORS
330
47
102
}
330
47
100
AcDbScale
 70
     0
300
3/8" = 1'-0"
140
0.375
141
12.0
290
     0
  0
SCALE
  5
62
102
{ACAD_REACTORS
330
47
102
}
330
47
100
AcDbScale
 70
     0
300
1/2" = 1'-0"
140
0.5
141
12.0
290
     0
  0
SCALE
  5
63
102
{ACAD_REACTORS
330
47
102
}
330
47
100
AcDbScale
 70
     0
300
3/4" = 1'-0"
140
0.75
141
12.0
290
     0
  0
SCALE
  5
64
102
{ACAD_REACTORS
330
47
102
}
330
47
100
AcDbScale
 70
     0
300
1" = 1'-0"
140
1.0
141
12.0
290
     0
  0
SCALE
  5
65
102
{ACAD_REACTORS
330
47
102
}
330
47
100
AcDbScale
 70
     0
300
1-1/2" = 1'-0"
140
1.5
141
12.0
290
     0
  0
SCALE
  5
66
102
{ACAD_REACTORS
330
47
102
}
330
47
100
AcDbScale
 70
     0
300
3" = 1'-0"
140
3.0
141
12.0
290
     0
  0
SCALE
  5
67
102
{ACAD_REACTORS
330
47
102
}
330
47
100
AcDbScale
 70
     0
300
6" = 1'-0"
140
6.0
141
12.0
290
     0
  0
SCALE
  5
68
102
{ACAD_REACTORS
330
47
102
}
330
47
100
AcDbScale
 70
     0
300
1'-0" = 1'-0"
140
12.0
141
12.0
290
     0
  0
ENDSEC
  0
EOF
